Sometimes


ARTIST: THE STRANGLERS
SONG: SOMETIMES
ALBUM: RATTUS NORVEGICUS
BASSIST: JEAN JACQUES BURNEL
TAB BY: user@johnrosk.softnet.co.uk	

R = Rest
(22) = Do not pick	
			(A)

G|----------------------------------|---------------------------------|
D|-------------------0---0---2---2--|------------------0---0---2---2--|
A|---0---0---3---3------------------|--0---0---3---3------------------|
E|----------------------------------|---------------------------------|

Repeat A another 7 times				
			(B)

G|----------------------------------|---------------------------------|
D|----------------------------------|---------------------------------|
A|---0---R---0---R------------------|--0---0--------------------------|
E|-------------------3---0---3---0--|----------------3----0---3---0---|

Repeat B another 3 times

			(C)			
G|----------------------------------|---------------------------------|
D|----------------------------------|------------------------------0--|
A|---2---3---3---3---2---3---3---3--|--2---3---3---3---2---3---3------|
E|----------------------------------|---------------------------------|


			(D)


G|----------0---------------0-------|----------0----------------------|
D|--2---3-------3---2---3-------3---|--2---3-------3---2---0----------|
A|----------------------------------|--------------------------3---2--|
E|----------------------------------|---------------------------------|

Repeat A another 4 times

Repeat B another 4 times

Repeat C
 

			(E)	
					
G|----------0---------------0-------|----------0----------------------|
D|--2---3-------3---2---3-------3---|--2---3-------3---2---3---2------|
A|----------------------------------|------------------------------3--|
E|----------------------------------|---------------------------------|

							
			(F)

G|----------------------------------|---------------------------------|
D|---0---0---0---0---0---0---0---0--|---------------------------------|
A|----------------------------------|--0---0---0---0---0---0---0---2--|
E|----------------------------------|---------------------------------|


			(G)

G|----------------------------------|---------------------------------|
D|----------------------------------|--------------------------0---0--|
A|---3---3---3---3---3---3---2---0--|----------2---2---3---3----------|
E|----------------------------------|--3---3--------------------------|


			(H)

G|----------------------------------|------------------2---0----------|
D|---0---0---0---0---0---0---0---0--|--------------------------3---2--|
A|----------------------------------|--0---0---0---0------------------|
E|----------------------------------|---------------------------------|


			(I)

G|----------------------------------|---------------------------------|
D|---------------------------0--0---|--2---R--------------------------|
A|---3---3---3---3---3---3----------|---------------------------------|
E|----------------------------------|---------------------------------|


Repeat A another 8 times

			(J)

G|----------------------------------|---------------------------------|
D|----------------------------------|---------------------------------|
A|---0---0---3---3---5---5--S7---7--|--0---0---3---3---5---5--S7---7--|
E|----------------------------------|---------------------------------|


Repeat J another 14 times

Repeat A another 4 times 


			(K)

G|----------------------------------|---------------------------------|
D|---0---0---0---0---0---0---0---0--|--0---0---0---0---0---0----------|
A|----------------------------------|--------------------------3---3--|
E|----------------------------------|---------------------------------|


			(L)

G|----------------------------------|------------------2---0----------|
D|----------------------------------|--------------------------3---2--|
A|-------0---0---0-------0---0---0--|------0---0---0------------------|
E|---4---------------4--------------|--4------------------------------|


Repeat C

			(M)

G|----------------------------------|---------------------------------|
D|---------------------------0---0--|--------------------------0---0--|
A|-----------2---2---3---3----------|----------2---2---3---3----------|
E|---3---3--------------------------|--3---3--------------------------|

Repeat K

Repeat L

			(N)

G|----------------------------------|---------------------------------|
D|----------------------------------|--------------------------0---0--|
A|---2---3---3---3--2---3---3---3---|--2---3---3---3---2---3----------|
E|----------------------------------|---------------------------------|


G|----------------------------------|
D|---2---R--------------------------|
A|----------------------------------|
E|----------------------------------|

Repeat A 4 times

Repeat B 4 times

Repeat C

Repeat D

Repeat A 7 times

Repeat J 3 times

Tempo slow down on ending

 			(O)

G|----------------------------------|---------------------------------|
D|----------------------------------|---------------------------------|
A|---0---0---3--3---5---5---5---5---|--7---7---7---7---7---7---7---7--|
E|----------------------------------|---------------------------------|


			(P)

G|----------------------------------|---------------------------------|
D|----------------------------------|---------------------------------|
A|---5---5---5---5---5---5---5---5--|--3---3---3---3---3---3--3---3---|
E|----------------------------------|---------------------------------|

			(Q)

G|----------------------------------|---------------------------------|
D|----------------------------------|---------------------------------|
A|--2---2---2---2---2---2---2---1---|--0----------------------------0-|
E|----------------------------------|---------------------------------|


			(R)

G|----------------------------------|---------------------------------|
D|----------------------------------|---------------------------------|
A|-0-0-0-0-0-0-0-0-0-0-0-0-0-0-0-0--|--0-0-0-0-0-0-0-S-----------(22)-|
E|----------------------------------|---------------------------------|









BACK TO MENU