Sweden



 SWEDEN (ALL QUIET ON THE EASTERN FRONT) 
 ARTISI: THE STRANGLERS 
 ALBUM: BLACK AND WHITE
 BASSIST : JEAN JACQUES BURNEL
 TAB BY mousey241@hotmail.com

 R= REST 
 S= SLIDE

 INTRO                             (A)
G|----------------------------------|----------------------------------|
D|----------------------------------|----------------------------------|
A|---4-4-------------5-5------------|-----7-7--------------7-7---------|
E|--------0-4-4----0------0-5-5-----|---0-------0-7-7----0------0-7-7--|
		

 VERSE 1                           (B) 
G|----------------------------------|----------------------------------|
D|----------------------------------|----------------------------------|
A|---4-4----5-5----7-7--------------|--4-4----5-5----7-7---------------|
E|-0------0------0-------0-5-0-5-0--|-------0------0--------0-5-0-5-0--|


                                   (C)
G|----------------------------------|----------------------------------|
D|----------------------------------|----------------------------------|
A|--4-4----5-5----7-7---------------|--4-4----5-5----7-7---------------|
E|-------0------0--------0-5-0-5-0--|-------0------0--------0-5-0-5-0--|


                                   (D)
G|----------------------------------|----------------------------------|
D|----------------------------------|----------------------------------|
A|--4-4----5-5----7-7---------------|--4-4----5-5----7-7---------------|
E|-------0------0--------0-5-0-5-0--|-------0------0--------0-5-0-5-0--|


 CHORUS                            (E)
G|----------------------------------|----------------------------------|
D|----------------------------------|----------------------------------|
A|--5-5---0-5-5---0-3-3-------------|----------------------------------|
E|------------------------0-3-3-----|--0-5-5---5-0-0---0-5-5---5-0-0---|


                                   (F)
G|----------------------------------|----------------------------------|
D|--------------------------5-5-----|-----------------5-5--------------|
A|--5-5---0-5-5---0-3-3---0---------|-------0-5-5---0------0-3-5-3-4---|
E|----------------------------------|--3-3-----------------------------|


                                   (G)
G|----------------------------------|----------------------------------|
D|----------------------------------|----------------5-R---------------|
A|--5-5---0-5-5---0-3-3-------------|--2-2-2-2-------------------------|
E|------------------------0-3-3-----|----------------------------------|


 VERSE 2                           (H)
G|----------------------------------|----------------------------------|
D|----------------------------------|----------------------------------|
A|---4-4----5-5----7-7--------------|--4-4----5-5----7-7---------------|
E|-0------0------0-------0-5-0-5-0--|-------0------0--------0-5-0-5-0--|


                                   (I)
G|----------------------------------|----------------------------------|
D|----------------------------------|----------------------------------|
A|--4-4----5-5----7-7---------------|--4-4----5-5----7-7---------------|
E|-------0------0--------0-5-0-5-0--|-------0------0--------0-5-0-5-0--|


                                   (J)
G|----------------------------------|----------------------------------|
D|----------------------------------|----------------------------------|
A|--4-4----5-5----7-7---------------|--4-4----5-5----7-7---------------|
E|-------0------0--------0-5-0-5-0--|-------0------0--------0-5-0-5-0--|


 CHORUS                            (K)
G|----------------------------------|----------------------------------|
D|----------------------------------|----------------------------------|
A|--5-5---0-5-5---0-3-3-------------|----------------------------------|
E|-------------------------0-3-3----|--0-5-5---5-0-0---0-5-5---5-0-0---|


                                   (L)
G|----------------------------------|----------------------------------|
D|----------------------------------|-----------------5-5--------------|
A|--5-5---0-5-5---0-3-3-------------|-------0-5-5---0------0-3-5-3-4---|
E|-------------------------0-3-3----|--3-3-----------------------------|


                                   (M)
G|----------------------------------|----------------------------------|
D|----------------------------------|----------------5-R---------------|
A|--5-5---0-5-5---0-3-3-------------|--2-2-2-2-------------------------|
E|-------------------------0-3-3----|----------------------------------|


                                   (N)  
G|----------------------------------|----------------------------------|
D|----------------------------------|----------------------------------|
A|-3-3-----0-3-3---3-3-5-3--2--0--0-|----------------------------------|
E|----0-3-3-------------------------|-----0-5-5----0-5-0-6-0-----------|


                                   (O)
G|----------------------------------|----------------------------------|
D|----------------------------------|----------------------------------|
A|-3-3-----0-3-3---3-3-5-3--2--0--0-|----------------------------------|
E|----0-3-3-------------------------|-----0-5-5----0-5-0-6-0-----------|


                                   (P)
G|----------------------------------|----------------------------------|
D|----------------------------------|----------------------------------|
A|-0-3-3---------0-3-3---0-3-2-1----|----------------------------------|
E|--------0-3-3---------------------|--5-5----5-0-0----0-5-5----5-0-0--|


                                   (Q)
G|----------------------------------|----------------------------------|
D|----------------------------------|----------------------------------|
A|-0-3-3---------0-3-3---0-3-2-1----|----------------------------------|
E|--------0-3-3---------------------|--5-5----5-0-0----0-5-5----5-0-0--|


                                   (R)
G|----------------------------------|----------------------------------|
D|----------------------------------|----------------------------------|
A|-0-3-3---------0-3-3---0-3-2-1----|----------------------------------|
E|--------0-3-3---------------------|--5-5----5-0-0----0-5-5----5-0-0--|


                                   (S)
G|----------------------------------|----------------------------------|
D|----------------------------------|-0-2-2--0-2-2-2----0-2-2--0-2-2-2-|
A|-0-3-3---------0-3-3--------------|----------------------------------|
E|--------0-3-3---------0-3-3-------|----------------------------------|


                                   (T)
G|----------------------------------|----------------------------------|
D|-0-5-5--0-5-5-5----0-5-5--0-5-5-5-|-0-7-7--0-7-7-7----0-7-7--0-7-7-7-|
A|----------------------------------|---------------------------------0-14S|
E|----------------------------------|----------------------------------|


 VERSE 3                           (U)
G|----------------------------------|----------------------------------|
D|----------------------------------|----------------------------------|
A|---4-4----5-5----7-7--------------|--4-4----5-5----7-7---------------|
E|-0------0------0-------0-5-0-5-0--|-------0------0--------0-5-0-5-0--|


                                   (V)
G|----------------------------------|----------------------------------|
D|----------------------------------|----------------------------------|
A|--4-4----5-5----7-7---------------|--4-4----5-5----7-7---------------|
E|-------0------0--------0-5-0-5-0--|-------0------0--------0-5-0-5-0--|


                                   (W)
G|----------------------------------|----------------------------------|
D|----------------------------------|----------------------------------|
A|--4-4----5-5----7-7---------------|--4-4----5-5----7-7---------------|
E|-------0------0--------0-5-0-5-0--|-------0------0--------0-5-0-5-0--|
                       

                                   (X)
G|----------------------------------|----------------------------------|
D|----------------------------------|----------------------------------|
A|--4-4----5-5----7-7---------------|--4-4----5-5----7-7---------------|
E|-------0------0--------0-5-0-5-0--|-------0------0--------0-5-0-5-0--|


                                   (Y)
G|----------------------------------|----------------------------------|
D|----------------------------------|----------------------------------|
A|--4-4----5-5----7-7---------------|--4-4----5-5----7-7---------------|
E|-------0------0--------0-5-0-5-0--|-------0------0--------0-5-0-5-0--|


                                   (Z)
G|----------------------------------|----------------------------------|
D|----------------------------------|----------------------------------|
A|--4-4----5-5----7-7---------------|--4-4-----------------------------|
E|-------0------0--------0-5-0-5-0--|----------------------------------|


BACK TO MENU