Sweet Smell Of Success


 SWEET SMELL OF SUCCSESS
 
 ARTIST: THE STRANGLERS
 ALBUM: 10
 BASSIST: JEAN JACQUES BURNEL
 TAB BY mousey241@hotmail.com

 
                                   (A)
G|----------------------------------|----------------------------------|
D|----------------------------------|----------------------------------|
A|----------4--4--------------2--2--|----------------------------------|
E|-0--0--------------3--3-----------|-12\---0-0-0-3-5-3----0-0-0-0-5-3-|
			

                                   (B)
G|----------------------------------|----------------------------------|
D|----------------------------------|----------------------------------|
A|----------------------------------|----------4--4--------------2--2--|
E|-0-0-0-3-5-3----0-0-0-5-3---------|-0--0--------------3--3-----------|


                                   (C)
G|----------------------------------|----------------------------------|
D|----------------------------------|----------------------------------|
A|----------------------------------|----------------------------------|
E|-12\---0-0-0-3-5-3----0-0-0-0-5-3-|--0-0-0-3-5-3----0-0-0-0-5-3------|


                                   (D)
G|----------------------------------|----------------------------------|
D|----------------------------------|----------------------------------|
A|----------4--4--------------2--2--|----------4--4--------------2--2--|
E|-0--0--------------3--3-----------|-0--0--------------3--3-----------|


                                   (E)
G|----------------------------------|----------------------------------|
D|----------------------------------|----------------------------------|
A|------------------4--0--2--2------|-----------------4--0--2--2-------|
E|-----0--0--3--0-------------------|-----0--0--3--0-------------------|


                                   (F)
G|----------------------------------|----------------------------------|
D|----------------------------------|----------------------------------|
A|------------------4--0--2--2------|-----------------4--0--2--2-------|
E|-----0--0--3--0-------------------|-----0--0--3--0-------------------|


                                   (G)
G|----------------------------------|----------------------------------|
D|----------------------------------|----------------------------------|
A|------------------4--0--2--2------|-----------------4--0--2--2-------|
E|-----0--0--3--0-------------------|-----0--0--3--0-------------------|


                                   (H)
G|----------------------------------|----------------------------------|
D|----------------------------------|----------------------------------|
A|------------------4--0--2--2------|-----------------4--0--2--2-------|
E|-----0--0--3--0-------------------|-----0--0--3--0-------------------|


                                   (I)
G|----------------------------------|----------------------------------|
D|----------------------------------|----------------------------------|
A|------------------4--0--2--2------|-----------------4--0--2--2-------|
E|-----0--0--3--0-------------------|-----0--0--3--0-------------------|


                                   (J)
G|----------------------------------|----------------------------------|
D|----------------------------------|----------------------------------|
A|------------------4--0--2--2------|-----------------4--0--2--2-------|
E|-----0--0--3--0-------------------|-----0--0--3--0-------------------|


                                   (K)
G|----------------------------------|----------------------------------|
D|----------------------------------|----------------------------------|
A|------------------4--0--2--2------|-----------------4--0--2--2-------|
E|-----0--0--3--0-------------------|-----0--0--3--0-------------------|


                                   (L)
G|----------------------------------|----------------------------------|
D|----------------------------------|----------------------------------|
A|------------------4--0--2--2------|-----------------4--0--2--2-------|
E|-----0--0--3--0-------------------|-----0--0--3--0-------------------|


                                   (M)
G|----------------------------------|----------------------------------|
D|----------------------------------|----------------------------------|
A|-0-0-0-0-0-0-0--------------------|----------3-3-3-3--5-5-5-5-5------|
E|----------------2--2-2-2-2-2-2-2--|-3-3-3-3----------------------12\-|
			

                                   (N)
G|----------------------------------|----------------------------------|
D|----------------------------------|----------------------------------|
A|------------------4--0--2--2------|-----------------4--0--2--2-------|
E|-----0--0--3--0-------------------|-----0--0--3--0-------------------|


                                   (O)
G|----------------------------------|----------------------------------|
D|----------------------------------|----------------------------------|
A|------------------4--0--2--2------|-----------------4--0--2--2-------|
E|-----0--0--3--0-------------------|-----0--0--3--0-------------------|


                                   (P)
G|----------------------------------|----------------------------------|
D|----------------------------------|----------------------------------|
A|------------------4--0--2--2------|-----------------4--0--2--2-------|
E|-----0--0--3--0-------------------|-----0--0--3--0-------------------|


                                   (Q)
G|----------------------------------|----------------------------------|
D|----------------------------------|----------------------------------|
A|------------------4--0--2--2------|-----------------4--0--2--2-------|
E|-----0--0--3--0-------------------|-----0--0--3--0-------------------|


                                   (R)
G|----------------------------------|----------------------------------|
D|----------------------------------|----------------------------------|
A|------------------4--0--2--2------|-----------------4--0--2--2-------|
E|-----0--0--3--0-------------------|-----0--0--3--0-------------------|


                                   (S)
G|----------------------------------|----------------------------------|
D|----------------------------------|----------------------------------|
A|------------------4--0--2--2------|-----------------4--0--2--2-------|
E|-----0--0--3--0-------------------|-----0--0--3--0-------------------|


                                   (T)
G|----------------------------------|----------------------------------|
D|----------------------------------|----------------------------------|
A|-0-0-0-0-0-0-0--------------------|----------3-3-3-3--5-5-5-5-5------|
E|----------------2--2-2-2-2-2-2-2--|-3-3-3-3----------------------12\-|


                                   (U)
G|----------------------------------|----------------------------------|
D|----------------------------------|----------------------------------|
A|------------------4--0--2--2------|-----------------4--0--2--2-------|
E|-----0--0--3--0-------------------|-----0--0--3--0-------------------|

 REPEAT U 14 TIMES
                                   (V)
G|----------------------------------|----------------------------------|
D|----------------------------------|----------------------------------|
A|----------------------------------|----------------------------------|
E|-0--------------------------------|----------------------------------|


                                   (W)
G|----------------------------------|----------------------------------|
D|----------------------------------|----------------------------------|
A|------------------4--0--2--2------|-----------------4--0--2--2-------|
E|-----0--0--3--0-------------------|-----0--0--3--0-------------------|


                                   (X)
G|----------------------------------|----------------------------------|
D|----------------------------------|----------------------------------|
A|------------------4--0--2--2------|-----------------4--0--2--2-------|
E|-----0--0--3--0-------------------|-----0--0--3--0-------------------|


                                   (Y)
G|----------------------------------|----------------------------------|
D|----------------------------------|----------------------------------|
A|------------------4--0--2--2------|-----------------4--0--2--2-------|
E|-----0--0--3--0-------------------|-----0--0--3--0-------------------|


                                   (Z)
G|----------------------------------|----------------------------------|
D|----------------------------------|----------------------------------|
A|-0-0-0-0-0-0-0--------------------|----------3-3-3-3--5-5-5-5-5-5-5-5|
E|----------------2--2-2-2-2-2-2-2--|-3-3-3-3--------------------------|


                                   (AA)
G|----------------------------------|----------------------------------|
D|----------------------------------|----------------------------------|
A|-0-0-0-0-0-0-0--------------------|----------3-3-3-3--5--------------|
E|----------------2--2-2-2-2-2-2-2--|-3-3-3-3--------------------------|


                                   (AB)
G|----------------------------------|----------------------------------|
D|----------------------------------|----------------------------------|
A|------------------4--0--2--2------|-----------------4--0--5--7-------|
E|-----0--0--3--0-------------------|-----0--0--3--0-------------------|
                                 

BACK TO MENU