Let's Tango In Paris



 LET'S TANGO IN PARIS

 ARTIST: THE STRANGLERS
 ALBUM: FELINE
 BASSIST: JEAN JACQUES BURNEL
  TAB BY mousey241@hotmail.com

 
                                   (A)
G|----------------------------------|----------------------------------|
D|----------------------------------|----------------------------------|
A|----------------------------------|----------------------------------|
E|----------------------------------|-----------------------5--3--2----|


                                   (B)
G|----------------------------------|--------------5----7----10---9--9-|
D|----------------------------------|-----3---5------------------------|
A|-5--7--4--5--3--2--4--------------|-5--------------------------------|
E|-----------------------5--3--2----|----------------------------------|


                                   (C)
G|----------------------------------|----------------------------------|
D|---------------2------------------|------------3-----2---------------|
A|-5----------------------2---2-----|-5--------------------------------|
E|----------------------------------|------------------------5--3--2---|


                                   (D)
G|----------------------------------|--------------5----7----10---9--9-|
D|----------------------------------|-----3---5------------------------|
A|-5--7--4--5--3--2--4--------------|-5--------------------------------|
E|-----------------------5--3--2----|----------------------------------|


                                   (E)
G|----------------------------------|----------------------------------|
D|---------------2------------------|------------3-----2---------------|
A|-5----------------------2---2-----|-5--------------------------------|
E|----------------------------------|------------------------5--3--2---|


                                   (F)
G|----------------------------------|--------------5----7----10---9--9-|
D|----------------------------------|-----3---5------------------------|
A|-5--7--4--5--3--2--4--------------|-5--------------------------------|
E|-----------------------5--3--2----|----------------------------------|


                                   (G)
G|----------------------------------|----------------------------------|
D|----------------------------------|----------------------------------|
A|------------------4----4----4-----|-2----2---2-----------------------|
E|-2----2----2-----------------------------------------4----4----4-----|


                                   (H)
G|----------------------------------|----------------------------------|
D|----------------------------------|----------------------------------|
A|------------------4----4----4-----|-2----2---2-----------------------|
E|-2----2----2-----------------------------------------4----4----4-----|


                                   (I)
G|----------------------------------|----------------------------------|
D|----------------------------------|----------------------------------|
A|------------------4----4----4-----|-2----2---2-----------------------|
E|-2----2----2-----------------------------------------4----4----4-----|


                                   (J)
G|----------------------------------|----------------------------------|
D|----------------------------------|----------------------------------|
A|------------------4----4----4-----|-2----2---2-----------------------|
E|-2----2----2-----------------------------------------1----1----1-----|


                                   (K)
G|----------------------------------|--------------5----7----10---9--9-|
D|----------------------------------|-----3---5------------------------|
A|-5--7--4--5--3--2--4--------------|-5--------------------------------|
E|-----------------------5--3--2----|----------------------------------|


                                   (L)
G|----------------------------------|----------------------------------|
D|---------------2------------------|------------3-----2---------------|
A|-5----------------------2---2-----|-5--------------------------------|
E|----------------------------------|------------------------5--3--2---|


                                   (M)
G|----------------------------------|--------------5----7----10---9--9-|
D|----------------------------------|-----3---5------------------------|
A|-5--7--4--5--3--2--4--------------|-5--------------------------------|
E|-----------------------5--3--2----|----------------------------------|


                                   (N)
G|----------------------------------|----------------------------------|
D|----------------------------------|----------------------------------|
A|------------------4----4----4-----|-2----2----2----------------------|
E|-2----2----2----------------------|------------------4----4----4-----|

 REPEAT N UNTIL THE SONG FADES OUT

BACK TO MENU