Thrown Away


 THROWN AWAY
 
 ARTIST: THE STRANGLERS
 ALBUM: THE GOSPEL ACCORDING TO THE MENINBLACK
 BASSIST: JEAN JACQUES BURNEL
 TAB BY mousey241@hotmail.com

 
                                   (A)
G|----------------------------------|----------------------------------|
D|----------------------------------|----------------------------------|
A|-3-3-3-3-3-3-3-3------------------|----------------------------------|
E|------------------3-3-3-3-3-3-3-3-|-1-1-1-1-1-1-1-1--1-1-1-1-1-1-1-1-|
			

                                   (B)
G|----------------------------------|----------------------------------|
D|----------------------------------|----------------------------------|
A|-3-3-3-3-3-3-3-3------------------|----------------------------------|
E|------------------3-3-3-3-3-3-3-3-|-1-1-1-1-1-1-1-1--1-1-1-1-1-1-1-1-|



                                   (C)
G|----------------------------------|----------------------------------|
D|----------------------------------|----------------------------------|
A|-3-3-3-3-3-3-3-3------------------|----------------------------------|
E|------------------3-3-3-3-3-3-3-3-|-1-1-1-1-1-1-1-1--1-1-1-1-1-1-1-1-|


                                   (D)
G|----------------------------------|----------------------------------|
D|----------------------------------|----------------------------------|
A|-3-3-3-3-3-3-3-3------------------|----------------------------------|
E|------------------3-3-3-3-3-3-3-3-|-1-1-1-1-1-1-1-1--1-1-1-1-1-1-1-1-|


                                   (E)
G|----------------------------------|----------------------------------|
D|----------------------------------|----------------------------------|
A|-3-3-3-3-3-3-3-3------------------|----------------------------------|
E|------------------3-3-3-3-3-3-3-3-|-1-1-1-1-1-1-1-1--1-1-1-1-1-1-1-1-|


                                   (F)
G|----------------------------------|----------------------------------|
D|----------------------------------|----------------------------------|
A|-3-3-3-3-3-3-3-3------------------|----------------------------------|
E|------------------3-3-3-3-3-3-3-3-|-1-1-1-1-1-1-1-1--1-1-1-1-1-1-1-1-|


                                   (G)
G|----------------------------------|----------------------------------|
D|----------------------------------|----------------------------------|
A|----------------------------------|----------------------------------|
E|-0-0-0-0-0-0-0-0--5-5-5-5-5-5-5-5-|-6-6-6-6-6-6-6-6--8-8-8-8-8-8-8-8-|

			

                                   (H)
G|----------------------------------|----------------------------------|
D|----------------------------------|----------------------------------|
A|----------------------------------|----------------------------------|
E|-0-0-0-0-0-0-0-0--5-5-5-5-5-5-5-5-|-6-6-6-6-6-6-6-6--3-3-3-3-3-3-3-3-|


                                   (I)
G|----------------------------------|----------------------------------|
D|----------------------------------|----------------------------------|
A|----------------------------------|----------------------------------|
E|-6-6-6-6-6-6-6-6--3-3-3-3-3-3-3-3-|-6-6-6-6-6-6-6-6--3-3-3-3-3-3-3-3-|


                                   (J)
G|----------------------------------|
D|----------------------------------|
A|----------------------------------|
E|-6-6-6-6-6-6-6-6--3---------------|


                                   (K)
G|----------------------------------|----------------------------------|
D|----------------------------------|----------------------------------|
A|-3-3-3-3-3-3-3-3------------------|----------------------------------|
E|------------------3-3-3-3-3-3-3-3-|-1-1-1-1-1-1-1-1--1-1-1-1-1-1-1-1-|
			

                                   (L)
G|----------------------------------|----------------------------------|
D|----------------------------------|----------------------------------|
A|-3-3-3-3-3-3-3-3------------------|----------------------------------|
E|------------------3-3-3-3-3-3-3-3-|-1-1-1-1-1-1-1-1--1-1-1-1-1-1-1-1-|



                                   (M)
G|----------------------------------|----------------------------------|
D|----------------------------------|----------------------------------|
A|-3-3-3-3-3-3-3-3------------------|----------------------------------|
E|------------------3-3-3-3-3-3-3-3-|-1-1-1-1-1-1-1-1--1-1-1-1-1-1-1-1-|


                                   (N)
G|----------------------------------|----------------------------------|
D|----------------------------------|----------------------------------|
A|-3-3-3-3-3-3-3-3------------------|----------------------------------|
E|------------------3-3-3-3-3-3-3-3-|-1-1-1-1-1-1-1-1--1-1-1-1-1-1-1-1-|


                                   (O)
G|----------------------------------|----------------------------------|
D|----------------------------------|----------------------------------|
A|-3-3-3-3-3-3-3-3------------------|----------------------------------|
E|------------------3-3-3-3-3-3-3-3-|-1-1-1-1-1-1-1-1--1-1-1-1-1-1-1-1-|


                                   (P)
G|----------------------------------|----------------------------------|
D|----------------------------------|----------------------------------|
A|-3-3-3-3-3-3-3-3------------------|----------------------------------|
E|------------------3-3-3-3-3-3-3-3-|-1-1-1-1-1-1-1-1--1-1-1-1-1-1-1-1-|


                                   (Q)
G|----------------------------------|----------------------------------|
D|----------------------------------|----------------------------------|
A|-3-3-3-3-3-3-3-3------------------|----------------------------------|
E|------------------3-3-3-3-3-3-3-3-|-1-1-1-1-1-1-1-1--1-1-1-1-1-1-1-1-|


                                   (R)
G|----------------------------------|----------------------------------|
D|----------------------------------|----------------------------------|
A|-3-3-3-3-3-3-3-3------------------|----------------------------------|
E|------------------3-3-3-3-3-3-3-3-|-1-1-1-1-1-1-1-1--1-1-1-1-1-1-1-1-|


                                   (S)
G|----------------------------------|----------------------------------|
D|----------------------------------|----------------------------------|
A|----------------------------------|----------------------------------|
E|-0-0-0-0-0-0-0-0--5-5-5-5-5-5-5-5-|-6-6-6-6-6-6-6-6--8-8-8-8-8-8-8-8-|

			

                                   (T)
G|----------------------------------|----------------------------------|
D|----------------------------------|----------------------------------|
A|----------------------------------|----------------------------------|
E|-0-0-0-0-0-0-0-0--5-5-5-5-5-5-5-5-|-6-6-6-6-6-6-6-6--3-3-3-3-3-3-3-3-|


                                   (U)
G|----------------------------------|----------------------------------|
D|----------------------------------|----------------------------------|
A|----------------------------------|----------------------------------|
E|-6-6-6-6-6-6-6-6--3-3-3-3-3-3-3-3-|-6-6-6-6-6-6-6-6--3-3-3-3-3-3-3-3-|


                                   (V)
G|----------------------------------|
D|----------------------------------|
A|----------------------------------|
E|-6-6-6-6-6-6-6-6--3---------------|


                                   (W)
G|----------------------------------|----------------------------------|
D|----------------------------------|----------------------------------|
A|----------------------------------|----------------------------------|
E|-0-0-0-0-0-0-0-0--5-5-5-5-5-5-5-5-|-6-6-6-6-6-6-6-6--8-8-8-8-8-8-8-8-|

			

                                   (X)
G|----------------------------------|----------------------------------|
D|----------------------------------|----------------------------------|
A|----------------------------------|----------------------------------|
E|-0-0-0-0-0-0-0-0--5-5-5-5-5-5-5-5-|-6-6-6-6-6-6-6-6--3-3-3-3-3-3-3-3-|


                                   (Y)
G|----------------------------------|----------------------------------|
D|----------------------------------|----------------------------------|
A|----------------------------------|----------------------------------|
E|-6-6-6-6-6-6-6-6--3-3-3-3-3-3-3-3-|-6-6-6-6-6-6-6-6--3-3-3-3-3-3-3-3-|

 REPEAT Y UNTIL THE SONG FADES OUT



BACK TO MENU