Turn The Centuries Turn



 TURN THE CENTURIES TURN
 ARTIST: THE STRANGLERS
 ALBUM: THE GOSPEL ACCORDING TO THE MENINBLACK
 BASSIST: JEAN JACQUES BURNEL
 TAB BY mousey241@hotmail.com

 
                                   (A)
G|----------------------------------|----------------------------------|
D|--7-------------------------------|-------------10---10\-------------|
A|------5---7---8---10---12---10----|----------------------------------|
E|----------------------------------|----------------------------------|


                                   (B)
G|----------------------------------|----------------------------------|
D|--7-------------------------10----|--8-10-8--7--5--3---3--5--3--2----|
A|------5---7---8---10---12---------|-------------------------------4--0-|
E|----------------------------------|----------------------------------|


                                   (C)
G|----------------------------------|----------------------------------|
D|--7-------------------------------|----------------------------------|
A|------5---7---8---10---12---10----|----------------------------------|
E|----------------------------------|--------------5---5---------------|


                                   (D)
G|----------------------------------|----------------------------------|
D|--7-------------------------------|--9-------------------------------|
A|------5---7---8----10----12-------|----------------------------------|
E|----------------------------------|----------------------------------|


                                   (E)
G|----------------------------------|----------------------------------|
D|--7-------------------------10----|--8-10-8--7--5--3---3--5--3--2----|
A|------5---7---8---10---12---------|-------------------------------4--0-|
E|----------------------------------|----------------------------------|


                                   (F)
G|----------------------------------|----------------------------------|
D|--3---3---5---3---2---3--2--0-----|----------------------------------|
A|----------------------------------|--1---1---3---1---0----1---0------|
E|----------------------------------|-------------------------------3--|


                                   (G)
G|----------------------------------|----------------------------------|
D|--3---3---5---3---2---3--2--0-----|----------------------------------|
A|----------------------------------|--1---1---3---1---0----1---0------|
E|----------------------------------|-------------------------------3--|


                                   (H)
G|----------------------------------|----------------------------------|
D|----------------------------------|----------------------------------|
A|----------------------------------|----------------------------------|
E|--3--3----1-------1--1---5--------|--5--5----3-------3--3---1--------|


                                   (I)
G|----------------------------------|----------------------------------|
D|----------------------------------|----------------------------------|
A|-------------------------4--------|----------------------------------|
E|--1--1----3--------3--3-----------|----------------------------------|


                                   (J)
G|----------------------------------|----------------------------------|
D|--7-------------------------------|-------------10---10\-------------|
A|------5---7---8---10---12---10----|----------------------------------|
E|----------------------------------|----------------------------------|


                                   (K)
G|----------------------------------|----------------------------------|
D|--7-------------------------------|--9----10--12--10--12--10--12\----|
A|------5---7---8----10----12-------|----------------------------------|
E|----------------------------------|----------------------------------|


                                   (L)
G|----------------------------------|----------------------------------|
D|--7-------------------------10----|--8-10-8--7--5--3---3--5--3--2----|
A|------5---7---8---10---12---------|-------------------------------4--0-|
E|----------------------------------|----------------------------------|


                                   (M)
G|----------------------------------|----------------------------------|
D|--3---3---5---3---2---3--2--0-----|----------------------------------|
A|----------------------------------|--1---1---3---1---0----1---0------|
E|----------------------------------|-------------------------------3--|
			

                                   (N)
G|----------------------------------|----------------------------------|
D|--7--5-3---3---5---3---2--3--2--0-|----------------------------------|
A|----------------------------------|--1---1---3---1---0----1---0------|
E|----------------------------------|-------------------------------3--|


                                   (O)
G|----------------------------------|----------------------------------|
D|----------------------------------|----------------------------------|
A|----------------------------------|--5--5--3---------5--5--3---------|
E|--3--3----1-------1--1---5--------|-----------5--3------------5--3---|


                                   (P)
G|----------------------------------|----------------------------------|
D|----------------------------------|----------------------------------|
A|--5--5--3----------5-----5--5--3--|---3--3---1----1-1----------------|
E|-----------3--5-------------------|--------------------5----5--5--3--|



                                   (Q)
G|----------------------------------|----------------------------------|
D|----------------------------------|----------------------------------|
A|----------------------------------|----------------------------------|
E|--3--3--1----1-1--3---------------|----------------------------------|


                                   (R)
G|----------------------------------|----------------------------------|
D|--7-------------------------------|-------------10---10\-------------|
A|------5---7---8---10---12---10----|----------------------------------|
E|----------------------------------|----------------------------------|


                                   (S)
G|----------------------------------|----------------------------------|
D|--7-------------------------------|--9----10--12--10--12--10--12--10-|
A|------5---7---8----10----12-------|----------------------------------|
E|----------------------------------|----------------------------------|


                                   (T)
G|----------------------------------|----------------------------------|
D|--7-------------------------10----|--8-10-8--7--5--3---3--5--3--2----|
A|------5---7---8---10---12---------|----------------------------------|
E|----------------------------------|----------------------------------|


                                   (U)
G|----------------------------------|----------------------------------|
D|--2--3--2--0--0--2--0-------------|----------------------------------|
A|-----------------------3--3--5--3-|--1--1--3--1----------------------|
E|----------------------------------|-----------------1--1--3--1-------|


                                   (V)
G|----------------------------------|----------------------------------|
D|----------------------------------|----------------------------------|
A|----------------------------------|----------------------------------|
E|--5--1--3--1------5--1--3--1------|--5--1--3--1------5--1--3--1------|


                                   (W)
G|----------------------------------|----------------------------------|
D|----------------------------------|----------------------------------|
A|----------------------------------|-------------------5-5-5----------|
E|-5-5-5--1--3--1----5-5-5--1--3--1-|-5-5-5--1--3--1-----------1--3--1-|


                                   (X)
G|----------------------------------|----------------------------------|
D|----------------------------------|----------------------------------|
A|--5--5--5-------------------------|--5--5--5-------------------------|
E|------------1--3--5--3------------|------------1--3--5--3------------|


                                   (Y)
G|----------------------------------|----------------------------------|
D|----------------------------------|----------------------------------|
A|--5--5--5-------------------------|--5--5--5-------------------------|
E|------------1--3--5--3------------|------------1--3--5--3------------|


                                   (Z)
G|----------------------------------|----------------------------------|
D|----------------------------------|----------------------------------|
A|--5--5--5-------------------------|--5--5--5-------------------------|
E|------------1--3--5--3------------|------------1--3--5--3------------|


                                   (AA)
G|----------------------------------|----------------------------------|
D|----------------------------------|----------------------------------|
A|--5--5--5-------------------------|--5--5--5-------------------------|
E|------------1--3--5--3------------|----------------------------------|



BACK TO MENU