Walk On By (Radio Edit)

 WALK ON BY (RADIO EDIT)
 ARTIST: THE STRANGLERS
 ALBUM: HITS AND HEROES(CD:2)
 BASSIST: JEAN JACQUES BURNEL
 TAB BY mousey241@hotmail.com

 R=REST

 
                                   (A)
G|----------------------------------|----------------------------------|
D|----------------------------------|----------------------------------|
A|----------------------------------|----------------------------------|
E|----------------------------------|-------------------0---3---4---5--|


                                   (B)
G|----------------------------------|----------------------------------|
D|----------------------------------|----------------------------------|
A|----------------------------------|----------------------------------|
E|--5----5----0----3----4----5------|--5----5----0----3----4----5------|


                                   (C)
G|----------------------------------|----------------------------------|
D|----------------------------------|----------------------------------|
A|----------------------------------|----------------------------------|
E|--5----5----0----3----4----5------|--5----5----0----3----4----5------|


                                   (D)
G|----------------------------------|----------------------------------|
D|----------------------------------|----------------------------------|
A|----------------------------------|-----5----5-------5---------------|
E|--5----5----0----3----4----5------|--5-------------------5-----5-----|


                                   (E)
G|----------------------------------|----------------------------------|
D|----------------------------------|------7----5----------------------|
A|-----5----5-------5---------------|----------------7----5------------|
E|--5-------------------5-----5-----|--5-----------------------5----5--|


                                   (F)
G|----------------------------------|----------------------------------|
D|----------------------------------|----------------------------------|
A|----------------------------------|------------------------------2--3-|
E|-3----3--3-----3---5----5--5----5-|-3----3--3-----3---5--5--5--5-----|


                                   (G)
G|----------------------------------|----------------------------------|
D|----------------------------------|----------------------------------|
A|--5----5---------5----5------5----|----------------------------------|
E|------------5---------------------|--5----5----3----5----3----5----3-|


                                   (H)
G|----------------------------------|----------------------------------|
D|----------------------------------|----------------------------------|
A|----------------------------------|-----3--3--------3-------3--------|
E|----6----6----5----6----6---------|--3----------3-------3-------3----|


                                   (I)
G|----------------------------------|----------------------------------|
D|----------------------------------|----------------------------------|
A|----------------------------------|----------------------------------|
E|--1---1-R----------------6---6-R--|--1---1-R----------------6---6-R--|


                                   (J)
G|----------------------------------|----------------------------------|
D|----------------------------------|----------------------------------|
A|----------------------------------|----------------------------------|
E|--1---1-R----------------6---6-R--|--1---1-R----------------1---1-R--|


                                   (K)
G|----------------------------------|----------------------------------|
D|----------------------------------|----------------------------------|
A|----------------------------------|-----5----5-------5---------------|
E|--5----5----0----3----4----5------|--5-------------------5-----5-----|


                                   (L)
G|----------------------------------|----------------------------------|
D|----------------------------------|------7----5----------------------|
A|-----5----5-------5---------------|----------------7----5------------|
E|--5-------------------5-----5-----|--5-----------------------5----5--|


                                   (M)
G|----------------------------------|----------------------------------|
D|----------------------------------|----------------------------------|
A|----------------------------------|------------------------------2--3-|
E|-3----3--3-----3---5----5--5----5-|-3----3--3-----3---5--5--5--5-----|


                                   (N)
G|----------------------------------|----------------------------------|
D|----------------------------------|----------------------------------|
A|--5----5---------5----5------5----|----------------------------------|
E|------------5---------------------|--5----5----3----5----3----5----3-|


                                   (O)
G|----------------------------------|----------------------------------|
D|----------------------------------|----------------------------------|
A|----------------------------------|-----3--3--------3-------3--------|
E|----6----6----5----6----6---------|--3----------3-------3-------3----|


                                   (P)
G|----------------------------------|----------------------------------|
D|----------------------------------|----------------------------------|
A|----------------------------------|----------------------------------|
E|--1---1-R----------------6---6-R--|--1---1-R----------------6---6-R--|


                                   (Q)
G|----------------------------------|
D|----------------------------------|
A|----------------------------------|
E|--1---1-R----------------6---6-R--|


                                   (R)
G|----------------------------------|----------------------------------|
D|----------------------------------|----------------------------------|
A|----------------------------------|----------------------------------|
E|--5----5---5---0---3---5---7------|--7----7----0----3----4----5------|


                                   (S)
G|----------------------------------|----------------------------------|
D|----------------------------------|----------------------------------|
A|----------------------------------|----------------------------------|
E|--5----5----0----3----5----7------|--7----7----0----3----4----5------|


                                   (T)
G|----------------------------------|----------------------------------|
D|----------------------------------|----------------------------------|
A|----------------------------------|----------------------------------|
E|--5----5----0----3----5----7------|--7----7----0----3----4----5------|


                                   (U)
G|----------------------------------|----------------------------------|
D|----------------------------------|----------------------------------|
A|----------------------------------|----------------------------------|
E|--5----5----0----3----5----7------|--7----7----0----3----4----5------|


                                   (V)
G|----------------------------------|----------------------------------|
D|----------------------------------|----------------------------------|
A|----------------------------------|----------------------------------|
E|--5----5----0----3----5----7------|--7----7----0----3----4----5------|


                                   (W)
G|----------------------------------|----------------------------------|
D|----------------------------------|----------------------------------|
A|----------------------------------|----------------------------------|
E|--5----5----0----3----5----7------|--7----7----0----3----4----5------|


                                   (X)
G|----------------------------------|----------------------------------|
D|----------------------------------|----------------------------------|
A|----------------------------------|----------------------------------|
E|--5----5----0----3----5----7------|--7----7----0----3----4----5------|


                                   (Y)
G|----------------------------------|----------------------------------|
D|----------------------------------|----------------------------------|
A|----------------------------------|----------------------------------|
E|--5----5----0----3----5----7------|--7----8----7----8----7----5------|


                                   (Z)
G|----------------------------------|----------------------------------|
D|----------------------------------|------9---7-----------------------|
A|----------------------------------|--------------9---7---5-----------|
E|--5----5----0----3----5----7------|--7-----------------------7---5---|


                                   (AA)
G|----------------------------------|----------------------------------|
D|----------------------------------|------9---7---8---9---10---9------|
A|----------------------------------|----------------------------------|
E|--5----5----0----3----5----7------|--7----------------------------5--|


                                   (AB)
G|----------------------------------|----------------------------------|
D|----------------------------------|------9---7-----------------------|
A|----------------------------------|--------------9---7---5-----------|
E|--5----5----0----3----5----7------|--7-----------------------7---5---|


                                   (AC)
G|----------------------------------|----------------------------------|
D|----------------------------------|----------------------------------|
A|----------------------------------|----------------------------------|
E|--5----5----0----3----5----7------|--7----7----0----3----4----5------|


                                   (AD)
G|----------------------------------|----------------------------------|
D|----------------------------------|----------------------------------|
A|----------------------------------|----------------------------------|
E|--5----5----0----3----5----7------|--7----8----10----8----7----5-----|


                                   (AE)
G|----------------------------------|----------------------------------|
D|----------------------------------|----------------------------------|
A|----------------------------------|----------------------------------|
E|--5----5----0----3----5----7------|--7----8----10----8----7----5-----|


                                   (AF)
G|----------------------------------|----------------------------------|
D|----------------------------------|----------------------------------|
A|----------------------------------|----------------------------------|
E|--5----5----0----3----5----7------|--7----7----0----3----4----5------|

 REPEAT AF UNTIL....
                                   (AG)
G|----------------------------------|----------------------------------|
D|----------------------------------|----------------------------------|
A|----------------------------------|----------------------------------|
E|--5----5----0----3----5----7------|--7----8----10----8----7----5-----|


                                   (AH)
G|----------------------------------|----------------------------------|
D|----------------------------------|----------------------------------|
A|----------------------------------|----------------------------------|
E|--5----5----0----3----5----7------|--7----8----10----8----7----5-----|


                                   (AI)
G|----------------------------------|----------------------------------|
D|----------------------------------|----------------------------------|
A|----------------------------------|----------------------------------|
E|--5----5----0----3----5----7------|--7----8----10----8----7----------|


                                   (AJ)
G|----------------------------------|----------------------------------|
D|----------------------------------|----------------------------------|
A|----------------------------------|----------------------------------|
E|-5-5-5-5-5----5-5-5-5-5----5---5--|-7-7-7-7-7----7-7-7-7-7----7---7--|

 REPEAT AJ UNTIL....
                                   (AK)
G|----------------------------------|----------------------------------|
D|----------------------------------|----------------------------------|
A|----------------------------------|----------------------------------|
E|--5----5---5---0---3---5---7------|--7----7----0----3----4----5------|
			

                                   (AL)
G|----------------------------------|----------------------------------|
D|----------------------------------|----------------------------------|
A|----------------------------------|----------------------------------|
E|--5----5----0----3----5----7------|--7----7----0----3----4----5------|


                                   (AM)
G|----------------------------------|----------------------------------|
D|----------------------------------|----------------------------------|
A|----------------------------------|----------------------------------|
E|--5----5----0----3----5----7------|--7----7----0----3----4----5------|


                                   (AN)
G|----------------------------------|
D------7----5-----------------------|
A|----------------7----5------------|
E--5-----------------------5----5---|


                                   (AO)
G|----------------------------------|----------------------------------|
D|----------------------------------|----------------------------------|
A|----------------------------------|------------------------------2--3-|
E|-3----3--3-----3---5----5--5----5-|-3----3--3-----3---5--5--5--5-----|


                                   (AP)
G|----------------------------------|----------------------------------|
D|----------------------------------|----------------------------------|
A|--5----5---------5----5------5----|----------------------------------|
E|------------5---------------------|--5----5----3----5----3----5----3-|


                                   (AQ)
G|----------------------------------|----------------------------------|
D|----------------------------------|----------------------------------|
A|----------------------------------|-----3--3--------3-------3--------|
E|----6----6----5----6----6---------|--3----------3-------3-------3----|


                                   (AR)
G|----------------------------------|----------------------------------|
D|----------------------------------|----------------------------------|
A|----------------------------------|----------------------------------|
E|--1---1-R----------------6---6-R--|--1---1-R----------------6---6-R--|


                                   (AS)
G|----------------------------------|----------------------------------|
D|----------------------------------|----------------------------------|
A|----------------------------------|----------------------------------|
E|--1---1-R----------------6---6-R--|--1---1-R----------------6---6-R--|


                                   (AT)
G|----------------------------------|----------------------------------|
D|----------------------------------|----------------------------------|
A|----------------------------------|----------------------------------|
E|--1---1-R----------------6---6-R--|--1---1-R----------------6---6-R--|


                                   (AU)
G|----------------------------------|----------------------------------|
D|----------------------------------|----------------------------------|
A|----------------------------------|----------------------------------|
E|-1--1--1--1--1--1--1--1--1--1--1--|--1--1--1--1--1--1--1--1--1--1--1-|

SLOW DOWN AS THE SONG COMES TO AN END


BACK TO MENU