Babylon's Burning


 BABYLON'S BURNING
 
 ARTIST: THE RUTS
 ALBUM: THE CRACK
 BASSIST: VINCE SEGS
 TAB BY [email protected]

 
                                   (A)
G|----------------------------------|----------------------------------|
D|-------------0-0-2-2-3-3-2-2------|-------------0-0-2-2-----2-2------|
A|-0-0-2-2-3-3-----------------3-3--|-0-0-2-2-3-3---------3-3-----3-3--|
E|----------------------------------|----------------------------------|
			

                                   (B)
G|----------------------------------|----------------------------------|
D|-------------0-0-2-2-3-3-2-2------|-------------0-0-2-2-----2-2------|
A|-0-0-2-2-3-3-----------------3-3--|-0-0-2-2-3-3---------3-3-----3-3--|
E|----------------------------------|----------------------------------|


                                   (C)
G|----------------------------------|----------------------------------|
D|-------------0-0-2-2-3-3-2-2------|-------------0-0-2-2-----2-2------|
A|-0-0-2-2-3-3-----------------3-3--|-0-0-2-2-3-3---------3-3-----3-3--|
E|----------------------------------|----------------------------------|


                                   (D)
G|----------------------------------|----------------------------------|
D|-------------0-0-2-2-3-3-2-2------|-------------0-0-2-2-----2-2------|
A|-0-0-2-2-3-3-----------------3-3--|-0-0-2-2-3-3---------3-3-----3-3--|
E|----------------------------------|----------------------------------|


                                   (E)
G|-------------------5-----5--7--5--|----------------------------------|
D|----------3-----7----7------------|-------------2-2--------------2-2-|
A|-5--5-5-5-------------------------|-0-0-2-2-3-3------0-0-2-2-3-3-----|
E|----------------------------------|----------------------------------|


                                   (F)
G|-------------------5-----5--7--5--|----------------------------------|
D|----------3-----7----7------------|-------------2-2--------------2-2-|
A|-5--5-5-5-------------------------|-0-0-2-2-3-3------0-0-2-2-3-3-----|
E|----------------------------------|----------------------------------|


                                   (G)
G|----------------------------------|----------------------------------|
D|-------------0-0-2-2-3-3-2-2------|-------------0-0-2-2-----2-2------|
A|-0-0-2-2-3-3-----------------3-3--|-0-0-2-2-3-3---------3-3-----3-3--|
E|----------------------------------|----------------------------------|


                                   (H)
G|----------------------------------|----------------------------------|
D|-------------0-0-2-2-3-3-2-2------|-------------0-0-2-2-----2-2------|
A|-0-0-2-2-3-3-----------------3-3--|-0-0-2-2-3-3---------3-3-----3-3--|
E|----------------------------------|----------------------------------|


                                   (I)
G|----------------------------------|----------------------------------|
D|-------------0-0-2-2-3-3-2-2------|-------------0-0-2-2-----2-2------|
A|-0-0-2-2-3-3-----------------3-3--|-0-0-2-2-3-3---------3-3-----3-3--|
E|----------------------------------|----------------------------------|


                                   (J)
G|----------------------------------|----------------------------------|
D|-------------0-0-2-2-3-3-2-2------|-------------0-0-2-2-----2-2------|
A|-0-0-2-2-3-3-----------------3-3--|-0-0-2-2-3-3---------3-3-----3-3--|
E|----------------------------------|----------------------------------|


                                   (K)
G|-------------------5-----5--7--5--|----------------------------------|
D|----------3-----7----7------------|-------------2-2--------------2-2-|
A|-5--5-5-5-------------------------|-0-0-2-2-3-3------0-0-2-2-3-3-----|
E|----------------------------------|----------------------------------|


                                   (L)
G|-------------------5-----5--7--5--|----------------------------------|
D|----------3-----7----7------------|-------------2-2--------------2-2-|
A|-5--5-5-5-------------------------|-0-0-2-2-3-3------0-0-2-2-3-3-----|
E|----------------------------------|----------------------------------|

                                   (M)
G|----------------------------------|----------------------------------|
D|----------------------------------|-------------------7-7-7-7-7-7-7-7|
A|--------------------------0-0-2-2-|-3-3-3-3-5-5-7-7-9----------------|
E|-1-1-1-1-3-3-3-3-4-4-4-4----------|----------------------------------|
			

                                   (N)
G|----------------------------------|----------------------------------|
D|----------------------------------|-------------------7-7-7-7-7-7-7-7|
A|--------------------------0-0-2-2-|-3-3-3-3-5-5-7-7-9----------------|
E|-1-1-1-1-3-3-3-3-4-4-4-4----------|----------------------------------|


                                   (O)
G|----------------------------------|----------------------------------|
D|-------------0-0-2-2-3-3-2-2------|-------------0-0-2-2-----2-2------|
A|-0-0-2-2-3-3-----------------3-3--|-0-0-2-2-3-3---------3-3-----3-3--|
E|----------------------------------|----------------------------------


                                   (P)
G|----------------------------------|----------------------------------|
D|-------------0-0-2-2-3-3-2-2------|-------------0-0-2-2-----2-2------|
A|-0-0-2-2-3-3-----------------3-3--|-0-0-2-2-3-3---------3-3-----3-3--|
E|----------------------------------|----------------------------------


                                   (Q)
G|----------------------------------|----------------------------------|
D|-------------0-0-2-2-3-3-2-2------|-------------0-0-2-2-----2-2------|
A|-0-0-2-2-3-3-----------------3-3--|-0-0-2-2-3-3---------3-3-----3-3--|
E|----------------------------------|----------------------------------


                                   (R)
G|----------------------------------|----------------------------------|
D|-------------0-0-2-2-3-3-2-2------|-------------0-0-2-2-----2-2------|
A|-0-0-2-2-3-3-----------------3-3--|-0-0-2-2-3-3---------3-3-----3-3--|
E|----------------------------------|----------------------------------


                                   (S)
G|-------------------5-----5--7--5--|----------------------------------|
D|----------3-----7----7------------|-------------2-2--------------2-2-|
A|-5--5-5-5-------------------------|-0-0-2-2-3-3------0-0-2-2-3-3-----|
E|----------------------------------|----------------------------------|


                                   (T)
G|-------------------5-----5--7--5--|----------------------------------|
D|----------3-----7----7------------|-------------2-2--------------2-2-|
A|-5--5-5-5-------------------------|-0-0-2-2-3-3------0-0-2-2-3-3-----|
E|----------------------------------|----------------------------------|


                                   (U)
G|----------------------------------|----------------------------------|
D|----------------------------------|-------------------7-7-7-7-7-7-7-7|
A|--------------------------0-0-2-2-|-3-3-3-3-5-5-7-7-9----------------|
E|-1-1-1-1-3-3-3-3-4-4-4-4----------|----------------------------------|


                                   (V)
G|----------------------------------|----------------------------------|
D|----------------------------------|-------------------7-7-7-7-7-7-7-7|
A|--------------------------0-0-2-2-|-3-3-3-3-5-5-7-7-9----------------|
E|-1-1-1-1-3-3-3-3-4-4-4-4----------|----------------------------------|


                                   (W)
G|----------------------------------|----------------------------------|
D|----------------------------------|----------------------------------|
A|--------------------------0-0-0-0-|-2-2-2-2-3-3-3-3-5-5-5-5-7-7------|
E|-1-1-1-1-3-3-3-3-4-4-4-4----------|------------------------------0-0-|


                                   (X)
G|----------------------------------|----------------------------------|
D|----------------------------------|----------------------------------|
A|--------------------------0-0-0-0-|-2-2-2-2-3-3-3-3-5-5-5-5-7-7------|
E|-1-1-1-1-3-3-3-3-4-4-4-4----------|------------------------------0-0-|


                                   (Y)
G|----------------------------------|----------------------------------|
D|----------------------------------|----------------------------------|
A|--------------------------0-0-0-0-|-2-2-2-2-3-3-3-3-5-5-5-5-7-7------|
E|-1-1-1-1-3-3-3-3-4-4-4-4----------|------------------------------0-0-|


                                   (Z)
G|----------------------------------|----------------------------------|
D|----------------------------------|----------------------------------|
A|--------------------------0-0-0-0-|-2-2-2-2-3-3-3-3------------------|
E|-1-1-1-1-3-3-3-3-4-4-4-4----------|-------------------5-5-5-5--------|



Back To Contents

Back To Main Stranglers Index