'A' Bomb In Wardour Street


 A BOMB IN WARDOUR STREET
 
 ARTIST: THE JAM 
 ALBUM: ALL MOD CONS
 BASSIST: BRUCE FOXTON
 TAB BY [email protected]

 
                                   (A)
G|----------------------------------|----------------------------------|
D|----------------------------------|----------------------------------|
A|----------7--7--------------------|----------7--7--------------------|
E|--5--5------------5--5------------|--5--5------------5--5------------|
			

                                   (B)
G|----------------------------------|----------------------------------|
D|----------------------------------|----------------------------------|
A|----------7--7--------------------|----------7--7--------------------|
E|--5--5------------5--5------------|--5--5------------5--5------------|


                                   (C)
G|----------------------------------|----------------------------------|
D|----------------------------------|----------------------------------|
A|----------7--7--------------------|----------7--7--------------------|
E|--5--5------------5--5------------|--5--5------------5--5------------|



                                   (D)
G|----------------------------------|---------------7---9---7----------|
D|---------------------7---9--------|-----------9----------------------|
A|-----------------9----------------|------7---------------------------|
E|-12-s\-------7--------------------|----------------------------------|


                                   (E)
G|----------------------------------|----------------------------------|
D|----------------------------------|----------------------------------|
A|----------7--7--------------------|----------7--7--------------------|
E|--5--5------------5--5------------|--5--5------------5--5------------|



                                   (F)
G|----------------------------------|----------------------------------|
D|----------------------------------|----------------------------------|
A|-7---7---7---7---7---7---7---7----|-7---7---7---7---7---7---7---7----|
E|----------------------------------|----------------------------------|


                                   (G)
G|----------------------------------|----------------------------------|
D|----------------------------------|----------------------------------|
A|----------0-7--7------------------|----------0-7--7------------------|
E|-0-5--5-----------0-5--5---0-5--5-|-0-5--5-----------0-5--5---0-5--5-|


                                   (H)
G|----------------------------------|----------------------------------|
D|----------------------------------|----------------------------------|
A|----------0-7--7------------------|----------0-7--7------------------|
E|-0-5--5-----------0-5--5---0-5--5-|-0-5--5-----------0-5--5---0-5--5-|


                                   (I)
G|----------------------------------|----------------------------------|
D|----------------------------------|----------------------------------|
A|----------0-7--7------------------|----------0-7--7------------------|
E|-0-5--5-----------0-5--5---0-5--5-|-0-5--5-----------0-5--5---0-5--5-|


                                   (J)
G|----------------------------------|---------------7---9---7----------|
D|---------------------7---9--------|-----------9----------------------|
A|-----------------9----------------|------7---------------------------|
E|-12-s\-------7--------------------|----------------------------------|



                                   (K)
G|----------------------------------|----------------------------------|
D|----------------------------------|----------------------------4-5-6-7-|
A|----------0-7--7------------------|---------0-7--7--------5-7--------|
E|-0-5--5-----------0-5--5---0-5--5-|-0-5--5----------0-5-7------------|



                                   (L)
G|----------------------------------|----------------------------------|
D|----------------------------------|----------------------------------|
A|-7---7---7---7---7---7---7---7----|-7---7---7---7---7---7---7---7----|
E|----------------------------------|----------------------------------|


                                   (M)

G|----------------------------------|----------------------------------|
D|----------------------------------|----------------------------------|
A|----------0-7--7------------------|----------0-7--7------------------|
E|-0-5--5-----------0-5--5---0-5--5-|-0-5--5-----------0-5--5---0-5--5-|


                                   (N)
G|----------------------------------|----------------------------------|
D|----------------------------------|----------------------------------|
A|----------0-7--7------------------|----------0-7--7------------------|
E|-0-5--5-----------0-5--5---0-5--5-|-0-5--5-----------0-5--5---0-5--5-|


                                   (0)
G|----------------------------------|---------------7---9---7----------|
D|---------------------7---9--------|-----------9----------------------|
A|-----------------9----------------|------7---------------------------|
E|-12-s\-------7--------------------|----------------------------------|



                                   (P)
G|----------------------------------|----------------------------------|
D|----------------------------------|----------------------------4-5-6-7-|
A|----------0-7--7------------------|---------0-7--7--------5-7--------|
E|-0-5--5-----------0-5--5---0-5--5-|-0-5--5----------0-5-7------------|



                                   (Q)
G|----------------------------------|----------------------------------|
D|----------------------------------|----------------------------------|
A|-7---7---7---7---7---7---7---7----|-7---7---7---7---7---7---7---7----|
E|----------------------------------|----------------------------------|


                                   (R)

G|----------------------------------|----------------------------------|
D|----------------------------------|----------------------------------|
A|----------0-7--7------------------|----------0-7--7------------------|
E|-0-5--5-----------0-5--5---0-5--5-|-0-5--5-----------0-5--5---0-5--5-|


                                   (S)
G|----------------------------------|----------------------------------|
D|----------------------------------|----------------------------------|
A|----------0-7--7------------------|----------0-7--7------------------|
E|-0-5--5-----------0-5--5---0-5--5-|-0-5--5-----------0-5--5---0-5--5-|


                                   (T)
G|----------------------------------|----------------------------------|
D|----------------------------------|----------------------------------|
A|----------0-7--7------------------|----------0-7--7------------------|
E|-0-5--5-----------0-5--5---0-5--5-|-0-5--5-----------0-5--5---0-5--5-|



                                   (U)
G|----------------------------------|---------------7---9---7----------|
D|---------------------7---9--------|-----------9----------------------|
A|-----------------9----------------|------7---------------------------|
E|-12-s\-------7--------------------|----------------------------------|



                                   (V)
G|----------------------------------|----------------------------------|
D|----------------------------------|----------------------------4-5-6-7-|
A|----------0-7--7------------------|---------0-7--7--------5-7--------|
E|-0-5--5-----------0-5--5---0-5--5-|-0-5--5----------0-5-7------------|



                                   (W)
G|----------------------------------|----------------------------------|
D|----------------------------------|----------------------------------|
A|-7---7---7---7---7---7---7---7----|-7---7---7---7---7---7---7---7----|
E|----------------------------------|----------------------------------|


                                   (X)
G|----------------------------------|----------------------------------|
D|----------------------------------|----------------------------------|
A|----------7--7--------------------|----------7--7--------------------|
E|--5--5------------5--5------------|--5--5------------5--5------------|
			

                                   (Y)
G|----------------------------------|----------------------------------|
D|----------------------------------|----------------------------------|
A|----------7--7--------------------|----------7--7--------------------|
E|--5--5------------5--5------------|--5--5------------5--5------------|


                                   (Z)
G|----------------------------------|----------------------------------|
D|----------------------------------|----------------------------------|
A|----------7--7--------------------|-7-7--8-8--9-9--10-10--11-11--12-12-|
E|--5--5------------5--5------------|----------------------------------|



Back To Contents

Back To Main Stranglers Index