Night Boat To Cairo


 NIGHT BOAT TO CAIRO
 
 ARTIST: MADNESS
 ALBUM: DIVINE MADNESS
 BASSIST: MARK BEDFORD
 TAB BY [email protected]

 
                                   (A)
G|----------------------------------|----------------------------------|
D|----------------------------------|----------------------------------|
A|-----7--10-------------7--10------|-----7--10-------------7--10------|
E|--8---------9--6----8---------9---|--8---------9--6----8---------9---|
			

                                   (B)
G|----------------------------------|----------------------------------|
D|--------5---------------3---------|--------5---------------3---------|
A|-----7-----7---------4-----4------|-----7-----7---------4-----4------|
E|--8---------------6---------------|--8---------------6---------------|


                                   (C)
G|----------------------------------|----------------------------------|
D|--------5---------------3---------|--------5---------------3---------|
A|-----7-----7---------4-----4------|-----7-----7---------4-----4------|
E|--8---------------6---------------|--8---------------6---------------|


                                   (D)
G|----------------------------------|----------------------------------|
D|--------5---------------3---------|--------5---------------3---------|
A|-----7-----7---------4-----4------|-----7-----7---------4-----4------|
E|--8---------------6---------------|--8---------------6---------------|


                                   (E)
G|----------------------------------|----------------------------------|
D|--------5---------------3---------|--------5-------------------------|
A|-----7-----7---------4-----4------|-----7-----7---------5--6--7------|
E|--8---------------6---------------|--8---------------6---------------|


                                   (F)
G|--------5------------5--8--5------|--------5-------------10--13--10--|
D|-----7-----7------6---------------|-----7-----7------11--------------|
A|--8-------------------------------|--8-------------------------------|
E|----------------------------------|----------------------------------|


                                   (G)
G|--------5------------5--8--5------|--------5-------------------------|
D|-----7-----7------6---------------|-----7-----7--------5--8-----5--8-|
A|--8-------------------------------|--8--------------6--------6-------|
E|----------------------------------|----------------------------------|


                                   (H)
G|----------------------------------|----------------------------------|
D|----5--8--------------5--------5--|----------------------------------|
A|-6--------6--5-----7--------7-----|----------------------------------|
E|----------------8--------8--------|--8-------------------------------|


                                   (I)
G|----------------------------------|----------------------------------|
D|--------5---------------3---------|--------5---------------3---------|
A|-----7-----7---------4-----4------|-----7-----7---------4-----4------|
E|--8---------------6---------------|--8---------------6---------------|


                                   (J)
G|----------------------------------|----------------------------------|
D|--------5---------------3---------|--------5---------------3---------|
A|-----7-----7---------4-----4------|-----7-----7---------4-----4------|
E|--8---------------6---------------|--8---------------6---------------|


                                   (K)
G|----------------------------------|----------------------------------|
D|--------5---------------3---------|--------5---------------3---------|
A|-----7-----7---------4-----4------|-----7-----7---------4-----4------|
E|--8---------------6---------------|--8---------------6---------------|


                                   (L)
G|----------------------------------|----------------------------------|
D|--------5---------------3---------|--------5-------------------------|
A|-----7-----7---------4-----4------|-----7-----7---------5--6--7------|
E|--8---------------6---------------|--8---------------6---------------|


                                   (M)
G|--------5------------5--8--5------|--------5-------------10--13--10--|
D|-----7-----7------6---------------|-----7-----7------11--------------|
A|--8-------------------------------|--8-------------------------------|
E|----------------------------------|----------------------------------|


                                   (N)
G|--------5------------5--8--5------|--------5-------------------------|
D|-----7-----7------6---------------|-----7-----7--------5--8-----5--8-|
A|--8-------------------------------|--8--------------6--------6-------|
E|----------------------------------|----------------------------------|


                                   (0)
G|----------------------------------|----------------------------------|
D|-----5---8------------------------|-------5--------5-----------------|
A|-6-------------6---5--------------|-----7--------7--------4--5--6----|
E|----------------------------------|--8--------8--------8-------------|


                                   (P)
G|--------5---------------3---------|--------5---------------3---------|
D|-----7-----7---------4-----4------|-----7-----7---------4-----4------|
A|--8---------------6---------------|--8---------------6---------------|
E|----------------------------------|----------------------------------|


                                   (Q)
G|--------5---------------3---------|--------5---------------3---------|
D|-----7-----7---------4-----4------|-----7-----7---------4-----4------|
A|--8---------------6---------------|--8---------------6---------------|
E|----------------------------------|----------------------------------|


                                   (R)
G|--------5---------------3---------|--------5---------------3---------|
D|-----7-----7---------4-----4------|-----7-----7---------4-----4------|
A|--8---------------6---------------|--8---------------6---------------|
E|----------------------------------|----------------------------------|


                                   (S)
G|--------5---------------3---------|--------5---------------3---------|
D|-----7-----7---------4-----4------|-----7-----7---------4-----4------|
A|--8---------------6---------------|--8---------------6---------------|
E|----------------------------------|----------------------------------|


                                   (T)
G|--------5---------------3---------|--------5---------------3---------|
D|-----7-----7---------4-----4------|-----7-----7---------4-----4------|
A|--8---------------6---------------|--8---------------6---------------|
E|----------------------------------|----------------------------------|


                                   (U)
G|----------------------------------|----------------------------------|
D|-----7--10-------------7--10------|-----7--10------------------------|
A|--8---------9--6----8---------9---|--8---------9--6----8--8--8--8--8-|
E|----------------------------------|----------------------------------|

                                   (V)
G|----------------------------------|----------------------------------|
D|----------------------------------|----------------------------------|
A|-8--8--8--8--8--8--8--8--8--8--8--|-8--8--8--8--8--8--8--8--8--8--8--|
E|----------------------------------|----------------------------------|
                                                        etc  etc etc

                                   (W)
G|--------5---------------3---------|--------5---------------3---------|
D|-----7-----7---------4-----4------|-----7-----7---------4-----4------|
A|--8---------------6---------------|--8---------------6---------------|
E|----------------------------------|----------------------------------|

 REPEAT W UNTIL THE SONG FADES OUT


Back To Contents

Back To Main Stranglers Index