Dreams Of Children


 THE DREAMS OF CHILDREN
 
 ARTIST: THE JAM  
 ALBUM: SNAP
 BASSIST: BRUCE FOXTON
 TAB BY [email protected]

 
                                   (A)
G|---------9-9--------7----9-9------|---------9-9--------7----9-9------|
D|---------------9------------------|---------------9------------------|
A|----7-7---------------------------|----7-7---------------------------|
E|----------------------------------|----------------------------------|
			

                                   (B)
G|----------------------------------|----------------------------------|
D|-----------------------2--1--2--1-|-----------------------2--1--2--1-|
A|-2--2--2--4--2--4--2--------------|-2--2--2--4--2--4--2--------------|
E|----------------------------------|----------------------------------|


                                   (C)
G|----------------------------------|----------------------------------|
D|-----------------------2--1--2--1-|-----------------------2--1--2--1-|
A|-2--2--2--4--2--4--2--------------|-2--2--2--4--2--4--2--------------|
E|----------------------------------|----------------------------------|


                                   (D)
G|----------------------------------|----------------------------------|
D|-----------------2--2--2----------|-----------------2--2-------------|
A|-2--2--2--4--2------------4-------|-2--2--2--4--2---------4----------|
E|----------------------------------|----------------------------------|


                                   (E)
G|----------------------------------|----------------------------------|
D|----------------------------------|----------------------------------|
A|-0-0-0-0-0-0-0-0--0-0-0-0-0-0-0-0-|------2--2--2--2--2--2--2--2------|
E|----------------------------------|----------------------------------|


                                   (F)
G|---------9-9--------7----9-9------|---------9-9--------7----9-9------|
D|---------------9------------------|---------------9------------------|
A|----7-7---------------------------|----7-7---------------------------|
E|----------------------------------|----------------------------------|



                                   (G)
G|----------------------------------|----------------------------------|
D|-----------------------2--1--2--1-|-----------------------2--1--2--1-|
A|-2--2--2--4--2--4--2--------------|-2--2--2--4--2--4--2--------------|
E|----------------------------------|----------------------------------|



                                   (H)
G|----------------------------------|----------------------------------|
D|-----------------------2--1--2--1-|-----------------------2--1--2--1-|
A|-2--2--2--4--2--4--2--------------|-2--2--2--4--2--4--2--------------|
E|----------------------------------|----------------------------------|



                                   (I)
G|----------------------------------|----------------------------------|
D|-----------------2--2--2----------|-----------------2--2-------------|
A|-2--2--2--4--2------------4-------|-2--2--2--4--2---------4----------|
E|----------------------------------|----------------------------------|



                                   (J)
G|----------------------------------|
D|----------------------------------|
A|-0-0-0-0-0-0-0-0--0-0-0-0-0-0-0-0-|
E|----------------------------------|


                                   (K)
G|----------------------------------|----------------------------------|
D|---------------4--4---------------|---------------8--8---------------|
A|--------4--4-----------4--4-------|--------8--8----------8--8--------|
E|-2--2-----------------------------|-6--6-----------------------------|


                                   (L)
G|----------------------------------|----------------------------------|
D|---------------4--4---------------|---------------8--8---------------|
A|--------4--4-----------4--4-------|--------8--8----------8S\---------|
E|-2--2-----------------------------|-6--6-----------------------------|


                                   (M)
G|----------------------------------|----------------------------------|
D|---------------4--4---------------|---------------8--8---------------|
A|--------4--4-----------4--4-------|--------8--8----------8--8--------|
E|-2--2-----------------------------|-6--6-----------------------------|


                                   (N)
G|----------------------------------|----------------------------------|
D|---------------4--4---------------|---------------8--8---------------|
A|--------4--4-----------4--4-------|--------8--8----------8---S\------|
E|-2--2-----------------------------|-6--6-----------------------------|


                                   (0)
G|----------------------------------|----------------------------------|
D|---------------4--4---------------|---------------8--8---------------|
A|--------4--4-----------4--4-------|--------8--8----------8--8--------|
E|-2--2-----------------------------|-6--6-----------------------------|


                                   (P)
G|----------------------------------|----------------------------------|
D|---------------4--4---------------|---------------8--8---------------|
A|--------4--4-----------4--4-------|--------8--8----------8S\---------|
E|-2--2-----------------------------|-6--6-----------------------------|


                                   (Q)
G|----------------------------------|----------------------------------|
D|----------------------------------|----------------------------------|
A|-0-0-0-0-0-0-0-0--0-0-0-0-0-0-0-0-|------2--2--2--2--2--2--2--2------|
E|----------------------------------|----------------------------------|                                   



                                   (R)
G|---------9-9--------7----9-9------|---------9-9--------7----9-9------|
D|---------------9------------------|---------------9------------------|
A|----7-7---------------------------|----7-7---------------------------|
E|----------------------------------|----------------------------------|


                                   (S)
G|----------------------------------|------------9------------9--------|
D|----------------------------------|--------9------------9------------|
A|-------------7-----------7--------|----7------------7----------------|
E|-----0---7------7----7-------7----|----------------------------------|


                                   (T)
G|----------------------------------|------------9------------9--------|
D|----------------------------------|--------9------------9------------|
A|-------------7-----------7--------|----7------------7----------------|
E|-----0---7------7----7-------7----|----------------------------------|


                                   (U)
G|----------------------------------|------------9------------9--------|
D|----------------------------------|--------9------------9------------|
A|-------------7-----------7--------|----7------------7----------------|
E|-----0---7------7----7-------7----|----------------------------------|


                                   (V)
G|----------------------------------|------------9------------9--------|
D|----------------------------------|--------9------------9------------|
A|-------------7-----------7--------|----7------------7----------------|
E|-----0---7------7----7-------7----|----------------------------------|


                                   (W)
G|----------------------------------|----------------------------------|
D|----------------------------------|----------------------------------|
A|-0-0-0-0-0-0-0-0--0-0-0-0-0-0-0-0-|------2--2--2--2--2--2--2--2------|
E|----------------------------------|----------------------------------|


                                   (X)
G|---------9-9--------7----9-9------|---------9-9--------7----9-9------|
D|---------------9------------------|---------------9------------------|
A|----7-7---------------------------|----7-7---------------------------|
E|----------------------------------|----------------------------------|


                                   (Y)
G|----------------------------------|----------------------------------|
D|-----------------------2--1--2--1-|-----------------------2--1--2--1-|
A|-2--2--2--4--2--4--2--------------|-2--2--2--4--2--4--2--------------|
E|----------------------------------|----------------------------------|


                                   (Z)
G|----------------------------------|----------------------------------|
D|-----------------------2--1--2--1-|-----------------------2--1--2--1-|
A|-2--2--2--4--2--4--2--------------|-2--2--2--4--2--4--2--------------|
E|----------------------------------|----------------------------------|


                                   (AA)
G|----------------------------------|----------------------------------|
D|-----------------2--2--2----------|-----------------2--2-------------|
A|-2--2--2--4--2------------4-------|-2--2--2--4--2---------4----------|
E|----------------------------------|----------------------------------|


                                   (AB)
G|----------------------------------|----------------------------------|
D|----------------------------------|----------------------------------|
A|-0-0-0-0-0-0-0-0--0-0-0-0-0-0-0-0-|------2--2--2--2--2--2--2--2------|
E|----------------------------------|----------------------------------|


                                   (AC)
G|----------------------------------|----------------------------------|
D|---------------4--4---------------|---------------8--8---------------|
A|--------4--4-----------4--4-------|--------8--8----------8--8--------|
E|-2--2-----------------------------|-6--6-----------------------------|


                                   (AD)
G|----------------------------------|----------------------------------|
D|---------------4--4---------------|---------------8--8---------------|
A|--------4--4-----------4--4-------|--------8--8----------8S\---------|
E|-2--2-----------------------------|-6--6-----------------------------|

 REPEAT AC & AD UNTIL THE SONG FADES OUT
                                   

Back To Contents

Back To Main Stranglers Index