Hope Street


  
ARTIST: STIFF LITTLE FINGERS
SONG: HOPE STREET
ALBUM: HOPE STREET
BASSIST: BRUCE FOXTON
TAB BY: [email protected]
	
R = REST

S = SLIDE

( ) = DO NOT PICK

G|----------------------------------|---------------------------------|
D|----------------------------------|---------------------------------|
A|---3------------------------------|---------------------------------|
E|----------------------------------|---------------------------------|


			(A)
G|----------------------------------|---------------------------------|
D|----------------------------------|---------------------------------|
A|---2---3-3-3---3---2---3-3-3---3--|--2---3-3-3---3---2---3-3-3---3--|
E|----------------------------------|---------------------------------|


			(B)
G|----------------------------------|---------------------------------|
D|----------------------------------|---------------------------------|
A|---2---3-3-3---3---2---3-3-3---3--|---2---3-3-3-3-3-3-3-3-3-3-3-3---|
E|----------------------------------|---------------------------------|

			
			(C)
G|----------------------------------|---------------------------------|
D|--------------2---3---2-----------|-------------2---3---2-----------|
A|---3------R---------------3---R---|--0------R---------------3---R---|
E|----------------------------------|---------------------------------|


			(D)				
G|----------------------------------|---------------------------------|
D|--------------2---3---2-----------|---------------------------------|
A|--------------------------3---R---|----------0-------3-------5------|
E|---3------R-----------------------|--1------------------------------|

REPEAT C, D, A


			(E)
G|----------------------------------|---------------------------------|
D|----------------------------------|---------------------------------|
A|---2---3-3-3---3---2---3-3-3---3--|--2---3-3-3---3---2---3-3-3-3-3--|
E|----------------------------------|---------------------------------|


			(F)
G|----------------------------------|---------------------------------|
D|----------2------5---2------------|---------------------------------|
A|---3---------------------3---R----|---------------------------------|
E|----------------------------------|--0------------------------------|



			(G)		
G|----------------------------------|---------------------------------|
D|----------0------3---0------------|---------------------------------|
A|---1---------------------1---R----|----------0-------3-------5------|
E|----------------------------------|--1------------------------------|

REPEAT F,G						

			(H)
G|----------------------------------|---------------------------------|
D|----------------------------------|---------------------------------|
A|----------------------------------|---------------------------------|
E|--3-------------------------------|----------------------1-R-1-R-1--|


REPEAT H, H, 

			(I)
G|----------------------------------|---------------------------------|
D|----------------------------------|---------------------------------|
A|----------------------------------|---------------0-------2------5--|
E|--3-------------------------------|---------------------------------|


REPEAT C, D, C, D

			(J)
G|----------------------------------|---------------------------------|
D|----------------------------------|---------------------------------|
A|---3------3------3---3---3---R----|---0------0------0---0---0---R---|
E|----------------------------------|---------------------------------|


			(K)
G|----------------------------------|---------------------------------|
D|----------------------------------|---------------------------------|
A|----------------------------------|----------0-------3-------5------|
E|---3------3------3---3---3---R----|--1------------------------------|


REPEAT F, G, F, G3

REPEAT H, H, H, I

REPEAT C, D, C, D

REPEAT J, K

			(L)
G|----------------------------------|---------------------------------|
D|----------------------------------|---------------------------------|
A|---1---R---1---R---1---R---1---R--|---------------------------------|
E|----------------------------------|--1---R---1---R---1---R---1---R--|


			(M)
G|----------------------------------|---------------------------------|
D|----------------------------------|---------------------------------|
A|---3---------S--(7)--10---7---S---|---3---------S--(7)--10---7-S-3--|
E|----------------------------------|---------------------------------|


			(P)
G|----------------------------------|---------------------------------|
D|----------------------------------|---------------------------------|
A|---1---R---1---R---1---R---1---R--|--5---R---5---R---5---R---5---R--|
E|----------------------------------|---------------------------------|


REPEAT M, L, M

			(Q)
G|----------------------------------|---------------------------------|
D|----------------------------------|---------------------------------|
A|----------------------------------|---------------------------------|
E|---3------------------------------|---------------------------------|


REPEAT Q, Q 

			(R)
G|----------------------------------|---------------------------------|
D|----------------------------------|---------------------------------|
A|---3--3-3-3--3-3-3--3-3-3--3-3----|--3-R---------------------12-S---|
E|----------------------------------|---------------------------------|

REPEAT C, D,C, D

			(S)
G|----------------------------------|---------------------------------|
D|---0------R---4---5---4---0---R---|-------------4---5---4---0---R---|
A|----------------------------------|--2------R-----------------------|
E|----------------------------------|---------------------------------|


			(T)
G|----------------------------------|---------------------------------|
D|--------------4---5---4---0---R---|---------------------------------|
A|---0------R-----------------------|--0-------2-------3-------4------|
E|----------------------------------|---------------------------------|


REPEAT S, T

			(U)
G|--------------1---2---1-----------|-------------1---2---1-----------|
D|---2------R---------------2---R---|--4------R---------------2---R---|
A|----------------------------------|---------------------------------|
E|----------------------------------|---------------------------------|


			(V)
G|--------------1---2---1-----------|---------------------------------|
D|--------------------------2---R---|------------------0-------1------|
A|---2------R-----------------------|--0-------4----------------------|
E|----------------------------------|---------------------------------|

REPEAT U, V

REPEAT C, D, C, D, C, D, C, D,


			(W)
G|----------------------------------|---------------------------------|
D|----------------------------------|---------------------------------|
A|---3-3-3-3----2---3-3-3-3----2----|---3-3-3-3----2---3-3-3-3----2---|
E|----------------------------------|---------------------------------|

REPEAT W

			(X)
G|----------------------------------|---------------------------------|
D|----------------------------------|---------------------------------|
A|---3-HOLD-------------------------|---------------------------------|
E|----------------------------------|---------------------------------|


Back To Contents

Back To Main Stranglers Index