Town Called Malice



 TOWN CALLED MALICE
  
 ARTIST: THE JAM 
 ALBUM: SNAP
 BASSIST: BRUCE FOXTON
 TAB BY [email protected]
 
 (0)=DO NOT PICK
  R=REST
  S=SLIDE
 
                                   (A)
G|----------------------------------|----------------------------------|
D|----------------------------------|----------------------------------|
A|----------7--5------------7--5--7-|----------7--5------------7--5--7-|
E|-5--5--5---------5--5--5----------|-5--5--5---------5--5--5----------|

			
                                   (B)
G|----------------------------------|----------------------------------|
D|----------------------------------|----------------------------------|
A|----------7--5------------7--5--7-|----------7--5------------7--5--7-|
E|-5--5--5---------5--5--5----------|-5--5--5---------5--5--5----------|


                                   (C)
G|----------------------------------|----------------------------------|
D|----------------------------------|----------------------------------|
A|----------7--5------------7--5--7-|----------7--5------------7--5--7-|
E|-5--5--5---------5--5--5----------|-5--5--5---------5--5--5----------|


 VERSE 1                           (D)
G|----------------------------------|--------------4---5---4---2-------|
D|--------------4---5---4---2-------|----------------------------------|
A|----------------------------------|----------------------------------|
E|--2-R-----------------------------|--0-R-----------------------------|


                                   (E)
G|----------------------------------|--------------5---4---2---4-------|
D|--------------4---5---4---2-------|----------------------------------|
A|----------------------------------|----------------------------------|
E|--2-R-----------------------------|--0-R-----------------------------|


                                   (F)
G|----------------------------------|----------------------------------|
D|----------------------------------|----------------------------------|
A|----------------------------------|----------------------------------|
E|-3--3--3--3-----3---3----3--3-----|-2--2--2--2-----2---2----(0)--2---|


                                   (G)
G|----------------------------------|----------------------------------|
D|----------------------------------|----------------------------------|
A|----------------------------------|------------------2---3---4-------|
E|-5--5--5---2--0----5--5--5---2--0-|-5--5--5--5-----------------------|


                                   (H)
G|----------------------------------|----------------------------------|
D|----------------------------------|----------------------------------|
A|----------7--5------------7--5--7-|----------7--5------------7--5--7-|
E|-5--5--5---------5--5--5----------|-5--5--5---------5--5--5----------|


                                   (I)
G|----------------------------------|----------------------------------|
D|----------------------------------|----------------------------------|
A|----------7--5------------7--5--7-|----------7--5------------7--5--7-|
E|-5--5--5---------5--5--5----------|-5--5--5---------5--5--5----------|


 VERSE 2                           (J)
G|----------------------------------|--------------4---5---4---2-------|
D|--------------4---5---4---2-------|----------------------------------|
A|----------------------------------|----------------------------------|
E|--2-R-----------------------------|--0-R-----------------------------|


                                   (L)
G|----------------------------------|--------------5---4---2---4-------|
D|--------------4---5---4---2-------|----------------------------------|
A|----------------------------------|----------------------------------|
E|--2-R-----------------------------|--0-R-----------------------------|


                                   (M)
G|----------------------------------|----------------------------------|
D|----------------------------------|----------------------------------|
A|----------------------------------|----------------------------------|
E|-3--3--3--3-----3---3----3--3-----|-2--2--2--2-----2---2----(0)--2---|


                                   (N)
G|----------------------------------|----------------------------------|
D|----------------------------------|----------------------------------|
A|----------------------------------|---------------2---3---4----------|
E|-5--5--5---2--0----5--5--5---2--0-|-5--5--5--------------------------|


                                   (O)
G|----------------------------------|----------------------------------|
D|----------------------------------|----------------------------------|
A|----------7--5------------7--5--7-|----------7--5------------7--5--7-|
E|-5--5--5---------5--5--5----------|-5--5--5---------5--5--5----------|


                                   (P)
G|----------------------------------|----------------------------------|
D|----------------------------------|----------------------------------|
A|----------7--5------------7--5--7-|----------7--5------------7--5--7-|
E|-5--5--5---------5--5--5----------|-5--5--5---------5--5--5----------|


 VERSE 3                           (Q)
G|----------------------------------|--------------4---5---4---2-------|
D|--------------4---5---4---2-------|----------------------------------|
A|----------------------------------|----------------------------------|
E|--2-R-----------------------------|--0-R-----------------------------|


                                   (R)
G|----------------------------------|--------------5---4---2---4-------|
D|--------------4---5---4---2-------|----------------------------------|
A|----------------------------------|----------------------------------|
E|--2-R-----------------------------|--0-R-----------------------------|


                                   (S)
G|----------------------------------|----------------------------------|
D|----------------------------------|----------------------------------|
A|----------------------------------|----------------------------------|
E|-3--3--3--3-----3---3----3--3-----|-2--2--2--2-----2---2----(0)--2---|


                                   (T)
G|----------------------------------|----------------------------------|
D|----------------------------------|----------------------------------|
A|----------------------------------|------------------2---3---4-------|
E|-5--5--5---2--0----5--5--5---2--0-|-5--5--5--5-----------------------|


                                   (U)
G|----------------------------------|----------------------------------|
D|----------------------------------|----------------------------------|
A|----------7--5------------7--5--7-|----------7--5------------7--5--7-|
E|-5--5--5---------5--5--5----------|-5--5--5---------5--5--5----------|


                                   (V)
G|----------------------------------|----------------------------------|
D|----------------------------------|----------------------------------|
A|----------7--5------------7--5--7-|----------7--5------------7--5--7-|
E|-5--5--5---------5--5--5----------|-5--5--5---------5--5--5----------|


                                   (W)
G|----------------------------------|----------------------------------|
D|----------------------------------|----------------------------------|
A|---4-R----4-S\-------2-R-----2-S/-|---4-R----4-S\-----2-R------------|
E|----------------------------------|----------------------------------|


                                   (X)
G|----------------------------------|----------------------------------|
D|----------------------------------|----------------------------------|
A|----------------------------------|------------------2---3---4-------|
E|-5--5--5---2--0----5--5--5---2--0-|-5--5--5--5-----------------------|


                                   (Y)
G|----------------------------------|----------------------------------|
D|----------------------------------|----------------------------------|
A|----------7--5------------7--5--7-|----------7--5------------7--5--7-|
E|-5--5--5---------5--5--5----------|-5--5--5---------5--5--5----------|


                                   (Z)
G|----------------------------------|----------------------------------|
D|----------------------------------|----------------------------------|
A|----------7--5------------7--5--7-|----------7--5------------7--5--7-|
E|-5--5--5---------5--5--5----------|-5--5--5---------5--5--5----------|


                                   (AA)
G|----------------------------------|----------------------------------|
D|----------------------------------|----------------------------------|
A|----------7--5------------7--5--7-|----------7--5------------7--5--7-|
E|-5--5--5---------5--5--5----------|-5--5--5---------5--5--5----------|


                                   (AB)
G|----------------------------------|
D|----------------------------------|
A|----------7--5------------7--5--7-|
E|-5--5--5---------5--5--5----------|


 VERSE 4                           (AC)
G|----------------------------------|--------------4---5---4---2-------|
D|--------------4---5---4---2-------|----------------------------------|
A|----------------------------------|----------------------------------|
E|--2-R-----------------------------|--0-R-----------------------------|


                                   (AD)
G|----------------------------------|--------------5---4---2---4-------|
D|--------------4---5---4---2-------|----------------------------------|
A|----------------------------------|----------------------------------|
E|--2-R-----------------------------|--0-R-----------------------------|


                                   (AE)
G|----------------------------------|----------------------------------|
D|----------------------------------|----------------------------------|
A|----------------------------------|----------------------------------|
E|-3--3--3--3-----3---3----3--3-----|-2--2--2--2-----2---2----(0)--2---|


                                   (AF)
G|----------------------------------|----------------------------------|
D|----------------------------------|----------------------------------|
A|----------------------------------|------------------2---3---4-------|
E|-5--5--5---2--0----5--5--5---2--0-|-5--5--5--5-----------------------|


                                   (AG)
G|----------------------------------|----------------------------------|
D|----------------------------------|----------------------------------|
A|----------7--5------------7--5--7-|----------7--5------------7--5--7-|
E|-5--5--5---------5--5--5----------|-5--5--5---------5--5--5----------|

 REPEAT AG UNTIL THE SONG FADES OUT
 

Back To Contents

Back To Main Stranglers Index