Monday




 MONDAY
 
 ARTIST: THE JAM 
 ALBUM: SOUND AFFECTS
 BASSIST: BRUCE FOXTON
 TAB BY [email protected]

 (0)= D0 NOT PICK

  S= SLIDE
                                   (A)
G|----------------------------------|-------------------------------12-|
D|-------------12-------------------|------------12-------------12-----|
A|--------12---------12----10-------|-------12--------12---10----------|
E|--10------------------------------|--10------------------------------|
			

                                   (B)
G|----------------------------------|-------------------------------12-|
D|-------------12-------------------|------------12-------------12-----|
A|--------12---------12----10-------|-------12--------12---10----------|
E|--10------------------------------|--10------------------------------|


                                   (C)
G|----------------------------------|-------------------------------12-|
D|-------------12-------------------|------------12-------------12-----|
A|--------12---------12----10-------|-------12--------12---10----------|
E|--10------------------------------|--10------------------------------|


                                   (D)
G|----------------------------------|----------------------------------|
D|-------------12-------------------|----------------------------------|
A|--------12-------12---10--10--(0)-|------3---3--3----2---2--2--------|
E|--10------------------------------|----------------------------------|


                                   (E)
G|----------------------------------|----------------------------------|
D|----------------------------------|----------------------------------|
A|-0--0----5-S/--7---7---(0)--------|-----0---2---3---5---7---8---10---|
E|----------------------------------|-3--------------------------------|


                                   (F)
G|----------------------------------|-------------------------------12-|
D|------------12--------------------|------------12------------12------|
A|-------12--------12---10--10--(0)-|-------12--------12---10----------|
E|--10------------------------------|--10------------------------------|


                                   (G)
G|----------------------------------|----------------------------------|
D|------------14--------------------|------------12--------------------|
A|-------14--------14---12--12--(0)-|-------12-------12---10--10--(0)--|
E|--12------------------------------|--10------------------------------|


                                   (H)
G|----------------------------------|----------------------------------|
D|------------12--------------------|----------------------------------|
A|-------12--------12---10--10-S\---|------3---3--3----2---2--2--------|
E|--10------------------------------|----------------------------------|


                                   (I)
G|----------------------------------|----------------------------------|
D|----------------------------------|----------------------------------|
A|-0--0----5-S/--7---7---(0)--------|----------------------------------|
E|----------------------------------|-3-3-3-3--3-3-3-3---3--3--3--3-S\-|


                                   (J)
G|----------------------------------|----------------------------------|
D|----------------------------------|----------------------------------|
A|-------------------2--4--5--4--2--|-------------------2--4--5--4--2--|
E|--2--4--5--4--2-------------------|--2--4--5--4--2-------------------|


                                   (K)
G|----------------------------------|----------------------------------|
D|-----0--2--0-------------0--------|-----0--2--0-------------0--------|
A|--3-----------3----2--3-----3--2--|--3-----------3----2--3-----3--2--|
E|----------------------------------|----------------------------------|


                                   (L)
G|----------------------------------|----------------------------------|
D|----------------------------------|----------------------------------|
A|----------------------------------|----------------------------------|
E|----1------------0---0------------|-0--0--0--0----0--0--0--0---------|


                                   (M)
G|----------------------------------|-------------------------------12-|
D|-----------12---------------------|-----------12--------------12-----|
A|------12--------12---10--10--(0)--|-------12-------12---10-----------|
E|--10------------------------------|--10------------------------------|


                                   (N)
G|----------------------------------|----------------------------------|
D|-----------14---------------------|-----------12---------------------|
A|-------14-------14---12--12--(0)--|-------12-------12---10--10--(0)--|
E|--12------------------------------|--10------------------------------|


                                   (O)
G|----------------------------------|----------------------------------|
D|-----------12---------------------|----------------------------------|
A|-------12-------12---10--10--(0)--|------3---3--3----2---2--2--------|
E|--10------------------------------|----------------------------------|


                                   (P)
G|----------------------------------|----------------------------------|
D|----------------------------------|----------------------------------|
A|-0--0----5-S/--7---7---(0)--------|-----0---2---3---5---7---8---10---|
E|----------------------------------|-3--------------------------------|


                                   (Q)
G|----------------------------------|-------------------------------12-|
D|-----------12---------------------|----------12--------------12------|
A|-------12-------12---10--10--(0)--|------12-------12---10------------|
E|--10------------------------------|--10------------------------------|


                                   (R)
G|----------------------------------|----------------------------------|
D|-----------14---------------------|----------12----------------------|
A|-------14-------14---12--12--(0)--|------12--------12---10--10--(0)--|
E|--12------------------------------|--10------------------------------|


                                   (S)
G|----------------------------------|----------------------------------|
D|------------12--------------------|----------------------------------|
A|-------12--------12--10--10-S\----|------3---3--3----2---2--2--------|
E|--10------------------------------|----------------------------------|


                                   (T)
G|----------------------------------|----------------------------------|
D|----------------------------------|----------------------------------|
A|-0--0----5-S/--7---7---(0)--------|----------------------------------|
E|----------------------------------|-3-3-3-3--3-3-3-3---3--3--3--3-S\-|


                                   (U)
G|----------------------------------|----------------------------------|
D|----------------------------------|----------------------------------|
A|-------------------2--4--5--4--2--|-------------------2--4--5--4--2--|
E|--2--4--5--4--2-------------------|--2--4--5--4--2-------------------|


                                   (V)
G|----------------------------------|----------------------------------|
D|-----0--2--0-------------0--------|-----0--2--0-------------0--------|
A|--3-----------3----2--3-----3--2--|--3-----------3----2--3-----3--2--|
E|----------------------------------|----------------------------------|


                                   (W)
G|----------------------------------|----------------------------------|
D|----------------------------------|----------------------------------|
A|----------------------------------|----------------------------------|
E|----1------------0---0------------|-0--0--0--0----0--0--0--0---------|


                                   (X)
G|----------------------------------|-------------------------------12-|
D|-----------12---------------------|-----------12-------------12------|
A|-------12-------12---10--10--(0)--|-------12-------12---10-----------|
E|--10------------------------------|--12------------------------------|


                                   (Y)
G|----------------------------------|-------------------------------12-|
D|-----------12---------------------|-----------12-------------12------|
A|-------12-------12---10--10--(0)--|-------12-------12---10-----------|
E|--10------------------------------|--12------------------------------|


                                   (Z)
G|----------------------------------|----------------------------------|
D|-----------14---------------------|-----------12---------------------|
A|-------14-------14---12--12--(0)--|-------12-------12---10--10--(0)--|
E|--12------------------------------|--10------------------------------|


                                   (AA)
G|----------------------------------|----------------------------------|
D|-----------12---------------------|----------------------------------|
A|-------12-------12---10--10--(0)--|------3---3--3----2---2--2--------|
E|--10------------------------------|----------------------------------|


                                   (AB)
G|----------------------------------|
D|----------------------------------|
A|--0--0----5-S/--7---7---(0)-------|
E|----------------------------------|

 REPEAT Y TO AB ANOTHER 2 TIMES

                                   (AC)
G|----------------------------------|-------------------------------12-|
D|-----------12---------------------|-----------12-------------12------|
A|-------12-------12---10--10--(0)--|-------12-------12---10-----------|
E|--10------------------------------|--10------------------------------|


                                   (AD)
G|----------------------------------|----------------------------------|
D|-----------14---------------------|-----------12---------------------|
A|-------14-------14---12--12--(0)--|-------12-------12---10--10--(0)--|
E|--12------------------------------|--10------------------------------|


                                   (AE)
G|-------------------------------12-|----------------------------------|
D|-----------12-------------12------|----------------------------------|
A|-------12-------12---10-----------|------3---3--3----2---2--2--------|
E|--10------------------------------|----------------------------------|


                                   (AF)
G|----------------------------------|
D|----------------------------------|
A|-0--0----5-S/--7---7---(0)--------|
E|----------------------------------|


 REPEAT AC AND AD UNTIL THE SONG FADES OUT
                                           

Back To Contents

Back To Main Stranglers Index