One Step Beyond


 ONE STEP BEYOND
 
 ARTIST: MADNESS 
 ALBUM: DIVINE MADNESS
 BASSIST: MARK BEDFORD
 TAB BY [email protected]

 *=HOLD NOTE
                                   (A)
G|------------------------5---------|----------------------------------|
D|---------5-----------6-----6------|---------5--------------5---------|
A|------6-----6-----8---------------|------6-----6--------6-----6------|
E|---8------------------------------|---8--------------8---------------|
			

                                   (B)
G|------------------------5---------|----------------------------------|
D|---------5-----------6-----6------|---------5-------------5----------|
A|------6-----6-----8---------------|------6-----6-------6-----6-------|
E|---8------------------------------|---8-------------8----------------|


                                   (C)
G|------------------------5---------|----------------------------------|
D|---------5-----------6-----6------|---------5-------------5----------|
A|------6-----6-----8---------------|------6-----6-------6-----6-------|
E|---8------------------------------|---8-------------8----------------|


                                   (D)
G|----------------------------------|----------------------------------|
D|---------0-----0----------0-----0-|---------0-----0---5---3---1---0--|
A|------2-----2----------2-----2----|------2-----2---------------------|
E|---3----------------3-------------|---3------------------------------|


                                   (E)
G|------------------------5---------|----------------------------------|
D|---------5-----------6-----5------|---------5-------------5----------|
A|------6-----6-----8---------------|------6-----6-------6-----6-------|
E|---8------------------------------|---8-------------8----------------|


                                   (F)
G|----------------------------------|----------------------------------|
D|---------5-------------5----------|---------5-------------5----------|
A|------6-----6-------6-----6-------|------6-----6-------6-----6-------|
E|---8-------------8----------------|---8-------------8----------------|


                                   (G)
G|----------------------------------|----------------------------------|
D|---------5-------------5----------|---------5-------------5----------|
A|------6-----6-------6-----6-------|------6-----6-------6-----6-------|
E|---8-------------8----------------|---8-------------8----------------|


                                   (H)
G|----------------------------------|----------------------------------|
D|---------0-----0----------0-----0-|---------0-----0---5---3---1---0--|
A|------2-----2----------2-----2----|------2-----2---------------------|
E|---3----------------3-------------|---3------------------------------|


                                   (I)
G|----------------------------------|----------------------------------|
D|---------5-------------5----------|---------5-------------5----------|
A|------6-----6-------6-----6-------|------6-----6-------6-----6-------|
E|---8-------------8----------------|---8-------------8----------------|


                                   (J)
G|----------------------------------|----------------------------------|
D|---------0-----0----------0-----0-|---------0-----0---5---3---1---0--|
A|------2-----2----------2-----2----|------2-----2---------------------|
E|---3----------------3-------------|---3------------------------------|


                                   (K)
G|------------------------5---------|----------------------------------|
D|---------5-----------6-----6------|---------5-------------5----------|
A|------6-----6-----8---------------|------6-----6-------6-----6-------|
E|---8------------------------------|---8-------------8----------------|


                                   (L)
G|------------------------5---------|----------------------------------|
D|---------5-----------6-----6------|---------5-------------5----------|
A|------6-----6-----8---------------|------6-----6-------6-----6-------|
E|---8------------------------------|---8-------------8----------------|


                                   (M)
G|----------------------------------|----------------------------------|
D|---------0-----0----------0-----0-|---------0-----0---5---3---1---0--|
A|------2-----2----------2-----2----|------2-----2---------------------|
E|---3----------------3-------------|---3------------------------------|


                                   (N)
G|------------------------5---------|------------------------5---------|
D|---------5-----------6-----6------|---------5-----------6-----6------|
A|------6-----6-----8---------------|------6-----6-----8---------------|
E|---8------------------------------|---8------------------------------|


                                   (O)
G|------------------------5---------|-----------------------5----------|
D|---------5-----------6-----6------|---------5-----------6-----6------|
A|------6-----6-----8---------------|------6-----6-----8---------------|
E|---8------------------------------|---8------------------------------|


                                   (P)
G|------------------------5---------|----------------------5------------|
D|---------5-----------6-----6------|---------5---------6-----6---------|
A|------6-----6-----8---------------|------6-----6---8-----------8--6---|
E|---8------------------------------|---8-------------------------------|


                                   (Q)
G|----------------------------------|-----------------------------------|
D|----------------------------------|-----------------------------------|
A|----------------------------------|-----------------------------------|
E|-8-8-8-8-8-8-8-8-8-8-8-8-8-8-8-8-8|-8-8-8-8-8-8-8-8-8-8-8-8-8-8--8*---|


Back To Contents

Back To Main Stranglers Index