Last Train From The Wasteland


ARTIST: STIFF LITTLE FINGERS
SONG: LAST TRAIN FROM THE WASTELAND
ALBUM: HOPE STREET
BASSIST: BRUCE FOXTON
TAB BY: [email protected]
	
R = REST

S = SLIDE
	
G|----------------------------------|---------------------------------|
D|----------------------------------|---------------------------------|
A|----------------------------------|---------------------------------|
E|----------------------------------|-----------------------------17S-|

				
			(A)
G|----------------------------------|---------------------------------|
D|----------------------------------|---------------------------------|
A|----------------------------------|---------------------------------|
E|---5-R-5-R-5---3--1-1-1--R-1---3--|--5-R-5-R-5---3--1-1-1--R-1---3--|


			(B)
G|----------------------------------|---------------------------------|
D|----------------------------------|---------------------------------|
A|----------------------------------|---------------------------------|
E|---5---R---5---3--1-1-1--R-1---3--|--5---R---5---3--1-1-1--R-1---3--|

REPEAT B, B 

			(C)
G|----------------------------------|---------------------------------|
D|----------------------------------|---------------------------------|
A|----------------------------------|---------------------------0-3-5-|
E|---5---R---5---3--1-1-1--R-1---3--|--5---R---5---3--1-1-1-R-1-------|


			(D)
G|----------------------------------|---------------------------------|
D|----------5-3-2-0-----------------|---------5-3-2-0-----------------|
A|--3----R--------------------0-3-5-|-3---3---------------------0-3-5-|
E|------------------3-R-3-R-3-------|-----------------1-R-1-R-1-------|

			
			(E)									
G|----------------------------------|---------------------------------|
D|----------5-3-2-0-----------------|---------------------------------|
A|--3--3--R-------------------------|---------------------------------|
E|------------------3-R-3-R-3-5-3-R-|--1---1---1---1---1---1---3---R--|


REPEAT B, B, B, B, C, D            

			(F)
G|----------------------------------|---------------------------------|
D|----------0-3-2-0-----------------|---------------------------------|
A|--3---3---------------------------|------------------3---3---5------|
E|------------------3-R-3-R-3-5-3-R-|--1---1---5----------------------|


			(G)
G|----------------------------------|---------------------------------|
D|-------2---5---2------------------|---------------------------------|
A|---3-------------------2---5---2--|------0---3---0-------0---3---0--|
E|-------------------3--------------|--1---------------1--------------|


			(H)
G|----------------------------------|---------------------------------|
D|-------2---5---2------------------|---------------------------------|
A|---3-------------------2---5---2--|---------------------------------|
E|-------------------3--------------|--1------------------------3-----|


REPEAT B, B, C, B, B, C, D, F

REPEAT G, G, G, H

			(I)
G|---------0-------------------0-2--|--------0-------------------0-2--|
D|--2---2----4-2-0----------0-2-----|-2---2----4-2-0---------0-2------|
A|------------------3---3-----------|-----------------3---3-----------|
E|----------------------------------|---------------------------------|


			(J)
G|----------0-----------------------|---------------------------------|
D|---2---2----4-2-0-------------5---|---------------------------------|
A|-------------------3---3--3-3-----|----------5---------------5------|
E|----------------------------------|--3---3-------3---3---3----------|


			(K)
G|----------------------------------|---------------------------------|
D|----------------------------------|---------------------------------|
A|-----------3----------------------|---------------------------------|
E|---1---1-------1---1---1---3------|---5---S----------0---R----------|


REST 6 BARS

			(L)
G|----------------------------------|---------------------------------|
D|----------------------------------|---------------------------------|
A|----------------------------------|---------------------------------|
E|---5--R---------------------------|---------------------------------|


			(M)
G|----------------------------------|---------------------------------|
D|----------------------------------|---------------------------------|
A|----------------------------------|-------------------------3-0-----|
E|---5---5---R----------------------|-----------------------------3-0-|


REPEAT D, F, G, G, G, H 

REPEAT B, B, B, C, 

			(N)
G|----------------------------------|---------------------------------|
D|----------------------------------|---------------------------------|
A|----------------------------0-3-5-|---------------------------------|
E|---5---R---5---3--1-1-1-R-1-------|--5---R---5---3--1-1-1--R-1---3--|

REPEAT C, C, B  FADE OUT

Back To Contents

Back To Main Stranglers Index