The Raven The Raven

Dead Loss Angeles


SONG: DEAD LOSS ANGELES
ARTISIT: THE STRANGLERS  ALBUM: THE RAVEN
BASSIST: JEAN JACQUES BURNEL
TAB BY:[email protected]

BD = BEND DOWN
R = REST

PLEASE NOTE THE PUSH CHORD

G|----|
D|----|
A|----|
E|--0-|


			(A)
G|----------------------------------|---------------------------------|
D|----------------------------------|---------------------------------|
A|----------------------------------|---------------------------------|
E|---3---0---2---0---R---0---R---0--|--3---0---2---0---R---0---R---0--|


			(B)
G|----------------------------------|---------------------------------|
D|----------------------------------|---------------------------------|
A|----------------------------------|---------------------------------|
E|---3---0---5---0---R---0---R---0--|--3---0---5---0---R---0---R---0--|


			(C)
G|----------------------------------|---------------------------------|
D|----------------------------------|---------------------------------|
A|----------------------------------|---------------------------------|
E|---5---0---7---0---R---0---R---0--|--7---0---8---0---R---0---R---0--|

	
			(D)
G|----------------------------------|---------------------------------|
D|----------------------------------|---------------------------------|
A|----------------------------------|---------------------------------|
E|---8---0--10---0---R---0---R---0--|--10---0--12--12--12--12--12--12-|


							
			(E)
G|----------------------------------|---------------------------------|
D|----------------------------------|---------------------------------|
A|----------------------------------|---------------------------------|
E|--12--12--12--R--12BD----------0--|--3---0---2---0---R---0---R---0--|


			(F)
G|----------------------------------|---------------------------------|
D|----------------------------------|---------------------------------|
A|----------------------------------|---------------------------------|
E|---3---0---2---0---R---0---R---0--|--3---0---5---0---R---0---R---0--|


			(G)
G|----------------------------------|---------------------------------|
D|----------------------------------|---------------------------------|
A|----------------------------------|---------------------------------|
E|---3---0---5---0---R---0---R---0--|--3---0---2---0---R---0---R---0--|

REPEAT F

			(H)
G|----------------------------------|---------------------------------|
D|----------------------------------|---------------------------------|
A|----------------------------------|---------------------------------|
E|---3---0---5---0---R---0---R---0--|--5---0---7---0---R---0---R---0--|


			(I)
G|----------------------------------|---------------------------------|
D|----------------------------------|---------------------------------|
A|----------------------------------|---------------------------------|
E|---7---0---8---0---R---0---R---0--|--8---0--10---0---R---0---R---0--|


			(J)
G|----------------------------------|---------------------------------|
D|----------------------------------|---------------------------------|
A|----------------------------------|---------------------------------|
E|--10---0--12--12--12--12--12--12--|--12--12--12--R--12BD---------0--|

REPEAT A, B, A, B, C, D


			(K)
G|----------------------------------|---------------------------------|
D|----------------------------------|---------------------------------|
A|--------------------------7-------|---------------------------------|
E|--12--12--8---7--10---8-------10--|--8---7---8---5---7---3---5---0--|


			(L)
G|----------------------------------|---------------------------------|
D|----------------------------------|---------------------------------|
A|---------------------------7------|---------------------------------|
E|---3---5---8---7--10---8------10--|--8---7---8---5---7---3---5---0--|

REPEAT L, L, L, L

REPEAT L, L, L, L

REPEAT A, B,  


			(M)
G|----------------------------------|---------------------------------|
D|----------------------------------|---------------------------------|
A|----------------------------------|---------------------------------|
E|---5---0---2---0---R---0---R---0--|--7---0---9---0---R---0---R---0--|


			(N)
G|----------------------------------|---------------------------------|
D|----------------------------------|---------------------------------|
A|----------------------------------|---------------------------------|
E|---7---0---5---0---R---0---R---0--|--7---0---9---0---R---0---R---0--|


			(O)
G|----------------------------------|---------------------------------|
D|----------------------------------|---------------------------------|
A|----------------------------------|---------------------------------|
E|---9---0--11---0---R---0---R---0--|-11---0--12---0---R---0---R---0--|


			(P)
G|----------------------------------|---------------------------------|
D|----------------------------------|---------------------------------|
A|----------------------------------|---------------------------------|
E|--12---0--14---0---R---0---R---0--|-14---0--12--12--12--12--12---12-|


REPEAT E, F, G, F, I, J

 

Back To Contents

Back To Main Stranglers Index