The Raven The Raven

Bear Cage


 SONG: BEAR CAGE
 ARTIST: THE STRANGLERS 
 ALBUM: THE RAVEN (CD BONUS TRACK)
 BASSIST: JEAN JACQUES BURNEL
 TAB BY [email protected]



 
 INTRO AND VERSE RIFF              (A)
G|----------------------------------|----------------------------------|
D|----------------------------------|----------------------------------|
A|----------------------------------|----------------------------------|
E|---5---5---0---3---0---3---0------|---5---5---0---3---0---3---0------|
                                                            etc etc etc
		

 1st CHORUS                        (B)
G|----------------------------------|----------------------------------|
D|----------------------------------|----------------------------------|
A|----------------------------------|----------------------------------|
E|----3--0--1--0----3--0--1--0------|--3---3---3---3---3---3---3---3---|


                                   (C)
G|----------------------------------|----------------------------------|
D|----------------------------------|----------------------------------|
A|----------------------------------|----------------------------------|
E|----3--0--1--0----3--0--1--0------|--3---3---3---3---3---3---3---3---|




 REPEAT VERSE RIFF




 2nd CHORUS                        (D)
G|----------------------------------|----------------------------------|
D|----------------------------------|----------------------------------|
A|----------------------------------|----------------------------------|
E|----3--0--1--0----3--0--1--0------|--3---0---1---2---3---0---1---2---|


                                   (E)
G|----------------------------------|----------------------------------|
D|----------------------------------|----------------------------------|
A|----------------------------------|----------------------------------|
E|----3--0--1--0----3--0--1--0------|--3---0---1---2---3---0---1---2---|


                                   (F)
G|----------------------------------|----------------------------------|
D|----------------------------------|----------------------------------|
A|----------------------------------|----------------------------------|
E|----3--0--1--0----3--0--1--0------|--3---0---1---2---3---0---1---2---|


                                   (G)
G|----------------------------------|----------------------------------|
D|----------------------------------|----------------------------------|
A|----------------------------------|----------------------------------|
E|----3--0--1--0----3--0--1--0------|--3---0---1---2---3---0---1---2---|

 REPEAT VERSE RIFF UNTIL THE SONG FADES OUT 







Back To Contents

Back To Main Stranglers Index