Black And White Black And White

Curfew


 SONG:CURFEW
 ARTIST: THE STRANGLERS
 ALBUM: BLACK AND WHITE
 BASSIST: JEAN JACQUES BURNEL
 TAB BY [email protected]
 AND [email protected]

 (5)= DO NOT PICK
                                   (A)
G|----------------------------------|----------------------------------|
D|----------------------------------|----------------------------------|
A|----------------------------------|------------------5-5-5-5-5-5-3-2-|
E|-3-3-3-3-3-3-3-3--0-0-0-0-0-0-0-0-|-1-1-1-1-1-1-1-1------------------|


                                   (B)
G|----------------------------------|----------------------------------|
D|----------------------------------|----------------------------------|
A|----------------------------------|------------------5-5-5-5-5-5-3-2-|
E|-3-3-3-3-3-3-3-3--0-0-0-0-0-0-0-0-|-1-1-1-1-1-1-1-1------------------|


                                   (C)
G|----------------------------------|----------------------------------|
D|----------------------------------|----------------------------------|
A|-6-6-6----------------------------|-6-6-6----------------------------|
E|--------5-5-5--6-6-6--0--0-0------|--------5-5-5--6-6-6--0--0-0------|


                                   (D)
G|----------------------------------|----------------------------------|
D|----------------------------------|----------------------------------|
A|-6-6-6----------------------------|-6-6-6----------------------------|
E|--------5-5-5--6-6-6--0--0-0------|--------5-5-5--6-6-6--0--0-0------|


                                   (E)
G|----------------------------------|----------------------------------|
D|----------------------------------|----------------------------------|
A|-6-6-6----------------------------|-6-6-6----------------------------|
E|--------5-5-5--6-6-6--0--0-0------|--------5-5-5--6-6-6--0--0-0------|



                                   (F)
G|----------------------------------|----------------------------------|
D|----------------------------------|----------------------------------|
A|-6-6-6----------------------------|----------------------------------|
E|--------5-5-5--6-6-6--0--0-0------|-3-3-3-3-3-3-3-3--1-1-1-1-1-1-1-1-|


                                   (G)
G|----------------------------------|----------------------------------|
D|----------------------------------|----------------------------------|
A|----------------------------------|----------------------------------|
E|-3-3-3-3-3-3-3-3--1-1-1-1-1-1-1-1-|-3-3-3-3-3-3-3-3--1-1-1-1-1-1-1-1-|


                                   (H)
G|----------------------------------|
D|----------------------------------|
A|----------------------------------|
E|-----3--3--3--3--3--1--3--1-------|


                                   (I)
G|----------------------------------|----------------------------------|
D|----------------------------------|----------------------------------|
A|----------------------------------|------------------5-5-5-5-5-5-3-2-|
E|-3-3-3-3-3-3-3-3--0-0-0-0-0-0-0-0-|-1-1-1-1-1-1-1-1------------------|


                                   (J)
G|----------------------------------|----------------------------------|
D|----------------------------------|----------------------------------|
A|----------------------------------|------------------5-5-5-5-5-5-3-2-|
E|-3-3-3-3-3-3-3-3--0-0-0-0-0-0-0-0-|-1-1-1-1-1-1-1-1------------------|


                                   (K)
G|----------------------------------|----------------------------------|
D|----------------------------------|----------------------------------|
A|-6-6-6----------------------------|-6-6-6----------------------------|
E|--------5-5-5--6-6-6--0--0-0------|--------5-5-5--6-6-6--0--0-0------|


                                   (L)
G|----------------------------------|----------------------------------|
D|----------------------------------|----------------------------------|
A|-6-6-6----------------------------|-6-6-6----------------------------|
E|--------5-5-5--6-6-6--0--0-0------|--------5-5-5--6-6-6--0--0-0------|


                                   (M)
G|----------------------------------|----------------------------------|
D|----------------------------------|----------------------------------|
A|-6-6-6----------------------------|-6-6-6----------------------------|
E|--------5-5-5--6-6-6--0--0-0------|--------5-5-5--6-6-6--0--0-0------|


                                   (N)
G|----------------------------------|----------------------------------|
D|----------------------------------|----------------------------------|
A|-6-6-6----------------------------|----------------------------------|
E|--------5-5-5--6-6-6--0--0-0------|-3-3-3-3-3-3-3-3--1-1-1-1-1-1-1-1-|


                                   (O)
G|----------------------------------|----------------------------------|
D|----------------------------------|----------------------------------|
A|----------------------------------|----------------------------------|
E|-3-3-3-3-3-3-3-3--1-1-1-1-1-1-1-1-|-3-3-3-3-3-3-3-3--1-1-1-1-1-1-1-1-|


                                   (P)
G|----------------------------------|
D|----------------------------------|
A|----------------------------------|
E|-----3--3--3--3--3--1--3--1-------|


                                   (Q)
G|----------------------------------|----------------------------------|
D|----------------------------------|----------------------------------|
A|----------------------------------|------------------5-5-5-5-5-5-3-2-|
E|-3-3-3-3-3-3-3-3--0-0-0-0-0-0-0-0-|-1-1-1-1-1-1-1-1------------------|


                                   (R)
G|----------------------------------|----------------------------------|
D|----------------------------------|----------------------------------|
A|----------------------------------|------------------5-5-5-5-5-5-3-2-|
E|-3-3-3-3-3-3-3-3--0-0-0-0-0-0-0-0-|-1-1-1-1-1-1-1-1------------------|                                  



                                   (S)
G|----------------------------------|----------------------------------|
D|----------------------------------|----------------------------------|
A|-6-6-6----------------------------|-7-7-7----------6-6-6--------3----|
E|--------5-5-5--6-6-6--0--0-0------|-------7-7-7----------6-6-6-----3-|


                                   (T)
G|----------------------------------|----------------------------------|
D|----------------------------------|----------------------------------|
A|-7-7-7----------6-6-6--------3----|-7-7-7---------6-6-6---------3----|
E|-------7-7-7----------6-6-6-----3-|-------7-7-7---------6-6-6------3-|
			

                                   (U)
G|----------------------------------|----------------------------------|
D|----------------------------------|----------------------------------|
A|-7-7-7----------6-6-6--------3----|-7-7-7---------6-6-6---------3----|
E|-------7-7-7----------6-6-6-----3-|-------7-7-7---------6-6-6------3-|


                                   (V)
G|----------------------------------|
D|----------------------------------|
A|-7-7-7----------6-6-6--------3----|
E|-------7-7-7----------6-6-6-----3-|


                                   (W)
G|----------------------------------|----------------------------------|
D|----------------------------------|----------------------------------|
A|-6-6-6----------------------------|-6-6-6----------------------------|
E|--------5-5-5--6-6-6--0--0-0------|--------5-5-5--6-6-6--0--0-0------|


                                   (X)
G|----------------------------------|----------------------------------|
D|----------------------------------|----------------------------------|
A|-6-6-6----------------------------|-6-6-6----------------------------|
E|--------5-5-5--6-6-6--0--0-0------|--------5-5-5--6-6-6--0--0-0------|


                                   (Y)
G|----------------------------------|----------------------------------|
D|----------------------------------|----------------------------------|
A|-6-6-6----------------------------|-6-6-6----------------------------|
E|--------5-5-5--6-6-6--0--0-0------|--------5-5-5--6-6-6--0--0-0------|



                                   (Z)
G|----------------------------------|----------------------------------|
D|----------------------------------|----------------------------------|
A|-6-6-6----------------------------|----------------------------------|
E|--------5-5-5--6-6-6--0--0-0------|-3-3-3-3-3-3-3-3--1-1-1-1-1-1-1-1-|


                                   (AA)
G|----------------------------------|----------------------------------|
D|----------------------------------|----------------------------------|
A|----------------------------------|----------------------------------|
E|-3-3-3-3-3-3-3-3--1-1-1-1-1-1-1-1-|-3-3-3-3-3-3-3-3--1-1-1-1-1-1-1-1-|


                                   (AB)
G|----------------------------------|
D|----------------------------------|
A|----------------------------------|
E|-----3--3--3--3--3--1--3--1-------|


                                   (AC)
G|----------------------------------|----------------------------------|
D|----------------------------------|----------------------------------|
A|----------------------------------|------------------5-5-5-5-5-5-3-2-|
E|-3-3-3-3-3-3-3-3--0-0-0-0-0-0-0-0-|-1-1-1-1-1-1-1-1------------------|



                                   (AD)
G|----------------------------------|-------------10---9--7-S-(5)----|
D|----------------------10---9--8---|-----------------------------7--|
A|--10--9--8--10--9--8--------------|---------0----------------------|
E|----------------------------------|--8--7--------------------------|

				
                                   (AE)
G|----------------------------------|---------------------------------|
D|----------7-----------12---11--10-|---------------------------------|
A|-8---10-------8---10--------------|------0--0--------0---0---12-----|
E|----------------------------------|-10----------10----------------10|

				
                                   (AF)
G|----------------------------------|---------------------------------|
D|---------------9------------------|------9----------------------9---|
A|---10--10--12-----12--10------10--|--12-----12--10------10----------|
E|--------------------------12------|-----------------12------12------|


                                   (AG)
G|----------------------------------|---------------------------------|
D|----------------------9--10--12---|-------------9-------------------|
A|--12--10------10--12--------------|---------12-----12---10------10--|
E|----------12----------------------|-10--10------------------12------|

				
                                   (AH)			
G|--12--11--10--12--11--10--12--11--|-10--12--11--10--12--11--10--12--|
D|----------------------------------|---------------------------------|
A|----------------------------------|---------------------------------|
E|----------------------------------|---------------------------------|

							
                                   (AI)
G|--11--10--12--11--10--12--11--10--|---------------------------------|
D|----------------------------------|---------------------------------|
A|----------------------------------|-6-6-6---------------------------|
E|----------------------------------|--------5-5-5--6-6-6--0-HOLD-----|


Back To Contents

Back To Main Stranglers Index