No More Heroes No More Heroes

Dagenham Dave


ARTIST: THE STRANGLERS
SONG: DAGENHAM DAVE 
ALBUM: NO MORE HEROES
BASSIST: JEAN JACQUES BURNEL
TAB BY: [email protected]

S = SLIDE
R = REST
( ) = DO NOT PICK	



			(A)
G|----------------------------------|---------------------------------|
D|----------------------------------|---------------------------------|
A|--7-------7-----------------------|---------------------------------|
E|------------------7---7---7---5---|------5---5---5---5-S(4)5-(4)S(5)|


RREPEAT A				
			
			(B)
G|----------------------------------|---------------------------------|
D|----------------------------------|---------------------------------|
A|---5------5------5---5---5---7----|------5--------------------------|
E|----------------------------------|----------7---6---5---0---4---0--|


REPEAT B
			
			(C)
G|----------------------------------|---------------------------------|
D|----------------------------------|---------------------------------|
A|--7------7------------------------|---------------------------------|
E|-----------------7---7---7---5----|------5---5---5---5---5---5---5--|


REPEAT C

			(D)
G|----------------------------------|---------------------------------|
D|----------------------------------|---------------------------------|
A|--5------5------------------------|---------------------------------|
E|-----------------5---5---5---0----|------0---0---0---0---0---0---0--|


REPEAT D, C, C, D, D

				
			(E)		
G|----------------------------------|---------------------------------|
D|----------------------------------|---------------------------------|
A|----------------------------------|---------------------------------|
E|--2-----2-------2---2---4---5-----|------5---5---5---5---5---5---5--|

							

			(F)
G|----------------------------------|---------------------------------|
D|----------------------------------|---------------------------------|
A|----------------------------------|---------------------------------|
E|--2-----2-------2---2---4---5-----|------4---5---6---7---7---7---7--|



			(G)
G|----------------------------------|---------------------------------|
D|----------------------------------|---------------------------------|
A|--7------7------------------------|---------------------------------|
E|-----------------7---7---7---5----|------5---5---5---5-S(4)S-(5)--5-|


			(H)
G|----------------------------------|---------------------------------|
D|----------------------------------|---------------------------------|
A|--5---5---5---5-------------------|---------------------------------|
E|------------------5---5-------0---|------0---0---0---0---0---0---0--|



REPEAT G, H

REPEAT C, C, D, D

REPEAT C, C, D, D     

REPEAT E, F, G, H

REPEAT G, H     

			(I)
G|----------------------------------|---------------------------------|
D|----------------------------------|---------------------------------|
A|----------------------------------|---------------------------------|
E|--4---4---4---4---5---5---5---5---|--7---7---7---7---9---9---9---9--|


REPEAT I, I, I, 


			(J)
G|----------------------------------|---------------------------------|
D|----------------------------------|---------------------------------|
A|----------------------------------|---------------------------------|
E|--7---7---7---7---7---7---7---7---|--7---7---7---7---7---7---7---7--|


REPEAT G, H, G


			(K)
G|----------------------------------|---------------------------------|
D|----------------------------------|---5---R---5---R----4---5---R----|
A|--5---5---5---5-------------------|---------------------------------|
E|------------------5---5--S--(0)---|---------------------------------|



			(L)
G|--------------------4---2---0-----|---------------------------------|
D|--5---R---5--R--5---------------4-|---------------------------------|
A|----------------------------------|---3---R---3----R----3---3---R---|
E|----------------------------------|---------------------------------|


			(M)
G|----------------------------------|---------------------------------|
D|----------------------------------|---5---R---5---R----4---5---R----|
A|--3---R---3--R--3---3---3---0-----|---------------------------------|
E|--------------------------------3-|---------------------------------|

REPEAT L
				
			(N)
G|----------------------------------|---------------------------------|
D|----------------------------------|---------------------------------|
A|--3---R---3--R--3---3---2---3---4-|--5---R---5----R----5---5---R----|
E|----------------------------------|---------------------------------|
	
			(O)			
G|----------------------------------|---------------------------------|
D|----------------------------------|---------------------------------|
A|--5---R---5--R--5---5---4---5---7-|--8---R---8----R----8---8---R----|
E|----------------------------------|---------------------------------|


			(P)
G|----------------------------------|---------------------------------|
D|----------------------------------|---------------------------------|
A|--8---R---8--R--8---8---8---7---6-|--5---R---5----R----5---5---R----|
E|----------------------------------|---------------------------------|

REPEAT O

			(Q)
G|----------------------------------|---------------------------------|
D|--------------------------------4-|--5---R---5---R----4---5---R-----|
A|--8---R---8--R--8---8---7---8-----|---------------------------------|
E|----------------------------------|---------------------------------|

REPEAT L, M, N

			(R)
G|----------------------------------|---------------------------------|
D|----------------------------------|---------------------------------|
A|--5---R---5--R--5---5---4---5---7-|--8--HOLD------------------------|
E|----------------------------------|---------------------------------|
		

			(S)
G|----------------------------------|---------------------------------|
D|----------------------------------|---------------------------------|
A|----------------------------------|--5---R---5----R----5---5---R----|
E|----------------------------------|---------------------------------|

REPEAT R, S, R

			(T)
G|----------------------------------|---------------------------------|
D|----------------------------------|---------------------------------|
A|----------------------------8S(3)-|---------------------------------|
E|----------------------------------|---3-HOLD------------------------|










Back To Contents

Back To Main Stranglers Index