No More Heroes No More Heroes

English Towns



ARTIST: THE STRANGLERS
SONG: ENGLISH TOWNS
ALBUM: NO MORE HEROES
BASSIST: JEAN JACQUES BURNEL
TAB BY: [email protected]

S = SLIDE
R = REST
( ) = DO NOT PICK


			(A)
G|----------------------------------|---------------------------------|
D|----------------------------------|---------------------------------|
A|-------------------7---7---7---R--|-------------------5------4------|
E|---7---7---7---R------------------|---5---5---5---R-----------------|

REPEAT A 
				
			(B)
G|----------------------------------|---------------------------------|
D|----------------------------------|---------------------------------|
A|-------------------7---7---7---R--|------------------5---4----------|
E|---7---7---7---R------------------|--5---5---5---R-----------7---5--|

REPEAT A, B
				
			(C)
G|----------------------------------|---------------------------------|
D|----------------------------------|---------------------------------|
A|----------------------------------|---------------------------------|
E|--3---3---3---3---3---3---3---3-S-|--2---2---2---2---2---2---2---2--|



			(D)
G|----------------------------------|---------------------------------|
D|----------------------------------|---------------------------------|
A|----------------------------------|---------------------------------|
E|--3---3---3---3---3---3---3---3---|--5---5---5---5---5---0---5---5--|


REPEAT B, A, B, C

			(E)
G|----------------------------------|---------------------------------|
D|----------------------------------|---------------------------------|
A|----------------------------------|---------------------------------|
E|--3---3---3---3---3---3---3---3---|--5---5---5---5---5---5---5---5--|


				
			(F)			
G|----------------------------------|---------------------------------|
D|----------------------------------|---------------------------------|
A|---7---7---7---R------------------|--5---5---5---R------------------|
E|-------------------7---7---7---R--|------------------5---5---5---R--|

							
			(G)
G|----------------------------------|---------------------------------|
D|----------------------------------|---------------------------------|
A|----------------------------------|---------------------------------|
E|--5-R-5-R-5-R-5-R-5-R-5-R-5-R-5-R-|-5-R-5-R-5-R-5-R-5-R-5-R-5-R-5-R-|

REPEAT F
			(H)
G|----------------------------------|---------------------------------|
D|----------------------------------|---------------------------------|
A|----------------------------------|---------------------4---5---6---|
E|--5-R-5-R-5-R-5-R-5-R-5-R-5-R-5-R-|-5-R-5-R-5-R-5-R-5-R-------------|

			(I)
G|----------------------------------|---------------------------------|
D|----------------------------------|---------------------------------|
A|--7---7---7---7-R-----------------|-5---5---5---5-R-----------------|
E|------------------7---7---7---7-R-|-----------------5---5---5---5-R-|

REPEAT H, I, G 

			(J)
G|----------------------------------|---------------------------------|
D|----------------------------------|---------------------------------|
A|----------------------------------|---------------------------------|
E|---1---1---1---1---1---1---1---1--|--3---3---3---3---3---3---3---3--|

			(K)
G|----------------------------------|---------------------------------|
D|----------------------------------|---------------------------------|
A|----------------------------------|---------------------------------|
E|---5---5---5---5---5---5---5---5--|--7---7---7---7---8---8---10--10-|

REPEAT J

			(L)
G|----------------------------------|---------------------------------|
D|----------------------------------|---------------------------------|
A|----------------------------------|---------------------------------|
E|---5---5---5---5---5---5---5---5--|-5-S-7-S-8-S-10-S-12-S-10-S-8-S-7|

REPEAT J

			(M)
G|----------------------------------|---------------------------------|
D|----------------------------------|---------------------------------|
A|----------------------------------|---------------------------------|
E|---5---5---5---5---5---5---5---5--|--3---3---3---3---3---3---3---3--|

REPEAT J

			(N)
G|----------------------------------|---------------------------------|
D|----------------------------------|---------------------------------|
A|----------------------------------|---------------------------------|
E|---5---5---5---5---5---5---5---5--|--7---7---7---7---7---7---7---7--|

REPEAT J

			(O)
G|----------------------------------|---------------------------------|
D|----------------------------------|---------------------------------|
A|----------------------------------|---------------------------------|
E|---5---5---5---5---5---5---5---5--|--8---8---8---8---8---8---8---8--|
	
			(P)
G|----------------------------------|---------------------------------|
D|----------------------------------|---------------------------------|
A|----------------------------------|---------------------------------|
E|--13--13--13--13--13--13--13--13--|--15--15--15--15--15--15--15--15-|


			(Q)
G|----------------------------------|---------------------------------|
D|----------------------------------|---------------------------------|
A|----------------------------------|---------------------------------|
E|--17--17--17--17--17--17--17--17--|--17--17--17--17--17--15--13--12-|


REPEAT J
			(R)
G|----------------------------------|---------------------------------|
D|----------------------------------|---------------------------------|
A|----------------------------------|---------------------------------|
E|-5---5-S(12)-S(5)-5---5-S(12)-S(5)|5---5-S(12)-S(5)-5---5-S(12)-S(5)|

REPEAT J

			(S)
G|----------------------------------|---------------------------------|
D|----------------------------------|---------------------------------|
A|----------------------------------|---------------------------------|
E|---5---5---5---5---5---5---5---5--|--5---5---5---5---5--R-5--R-5--R-|

REPEAT J
		
			(T)
G|----------------------------------|---------------------------------|
D|----------------------------------|---------------------------------|
A|----------------------------------|---------------------------------|
E|--5--R--5--R--5--R--5--R--5--R--5-|--7----8----10----15----12----10-|


			(U)
G|----------------------------------|---------------------------------|
D|----------------------------------|---------------------------------|
A|----------------------------------|---------------------------------|
E|---1---1---1---1---1---1---1---1--|--3---R---3---R---3---3------R---|

			(V)
G|----------------------------------|---------------------------------|
D|----------------------------------|---------------------------------|
A|----------------------------------|---------------------------------|
E|---5--HOLD------------------------|---------------------------------|





Back To Contents

Back To Main Stranglers Index