Everybody Loves You When Your Dead


 SONG: EVERYBODY LOVES YOU WHEN YOUR DEAD
 ARTISIT: THE STRANGLERS 
 ALBUM: LA FOLIE
 BASSIST: JEAN JACQUES BURNEL
 TAB BY [email protected]

 

 KEYBOARDS INTRO

                                   (A)
G|------------------------7---------|------------------------7---------|
D|------5-7-6-5-----5-7-5-----------|------5-7-6-5-----5-7-5-----------|
A|----------------------------------|----------------------------------|
E|----------------------------------|----------------------------------|
			

                                   (B)
G|----------------------------------|----------------------------------|
D|-------------5-4------------------|-------------5-4------------------|
A|---------3-5--------------3-5-----|---------3-5--------------3-5-----|
E|-3-3-5-5----------3-3-5-5-----3---|-3-3-5-5----------3-3-5-5-----3---|


                                   (C)
G|----------------------------------|----------------------------------|
D|-------------5-4------------------|-------------5-4------------------|
A|---------3-5--------------3-5-----|---------3-5--------------3-5-----|
E|-3-3-5-5----------3-3-5-5-----3---|-3-3-5-5----------3-3-5-5-----3---|


                                   (D)
G|----------------------------------|----------------------------------|
D|----------------------------------|----------------------------------|
A|----------------------------------|-5-5-5-5-5-5-5-5--3-3-3-3-2-3-2-3-|
E|-5-5-5-5-5-5-5-5--0-0-0-0-0-0-0-0-|----------------------------------|


                                   (E)
G|----------------------------------|----------------------------------|
D|----------------------------------|----------------------------------|
A|----------------------------------|-5-5-5-5-5-5-5-5--3-3-3-3-2-3-2-3-|
E|-5-5-5-5-5-5-5-5--0-0-0-0-0-0-0-0-|----------------------------------|

                                   (F)
G|----------------------------------|----------------------------------|
D|----------------------------------|----------------------------------|
A|----------------------------------|-5-5-5-5-5-5-5-5--3-3-3-3-2-3-2-3-|
E|-5-5-5-5-5-5-5-5--0-0-0-0-0-0-0-0-|----------------------------------|


                                   (G)
G|----------------------------------|----------------------------------|
D|----------------------------------|----------------------------------|
A|-----------------5-5-5-5--2-3-2-3-|-----------------5-5-5-5-2-3-2----|
E|-5-5-5-5-0-0-0-0------------------|-5-5-5-5-0-0-0-0------------------|


                                   (H)
G|----------------------------------|----------------------------------|
D|-------------5-4------------------|-------------5-4------------------|
A|---------3-5--------------3-5-----|---------3-5--------------3-5-----|
E|-3-3-5-5----------3-3-5-5-----3---|-3-3-5-5----------3-3-5-5-----3---|


                                   (I)
G|----------------------------------|----------------------------------|
D|-------------5-4------------------|-------------5-4------------------|
A|---------3-5--------------3-5-----|---------3-5--------------3-5-----|
E|-3-3-5-5----------3-3-5-5-----3---|-3-3-5-5----------3-3-5-5-----3---|


                                   (J)
G|----------------------------------|----------------------------------|
D|----------------------------------|----------------------------------|
A|----------------------------------|-5-5-5-5-5-5-5-5--3-3-3-3-2-3-2-3-|
E|-5-5-5-5-5-5-5-5--0-0-0-0-0-0-0-0-|----------------------------------|


                                   (K)
G|----------------------------------|----------------------------------|
D|----------------------------------|----------------------------------|
A|----------------------------------|-5-5-5-5-5-5-5-5--3-3-3-3-2-3-2-3-|
E|-5-5-5-5-5-5-5-5--0-0-0-0-0-0-0-0-|----------------------------------|


                                   (L)
G|----------------------------------|----------------------------------|
D|----------------------------------|----------------------------------|
A|-----------------5-5-5-5--2-3-2-3-|-----------------5-5-5-5--2-3-2-3-|
E|-5-5-5-5-0-0-0-0------------------|-5-5-5-5-0-0-0-0------------------|


                                   (M)
G|-----------12---------10--------7-|-----------12---------10--------7-|
D|-------11----------9---------6----|-------11----------9---------6----|
A|---12----------10---------7-------|---12----------10---------7-------|
E|----------------------------------|----------------------------------|


                                   (N)
G|----------------------------------|----------------------------------|
D|----------10--------8--------6----|----------10--------8--------6----|
A|-------9---------7--------5-------|-------9---------7--------5-------|
E|---10---------8--------6----------|---10---------8--------6----------|


                                   (0)
G|-----------12---------10--------7-|-----------12---------10--------7-|
D|-------11----------9---------6----|-------11----------9---------6----|
A|---12----------10---------7-------|---12----------10---------7-------|
E|----------------------------------|----------------------------------|


                                   (P)
G|----------------------------------|----------------------------------|
D|----------10--------8--------6----|----------10--------8-------------|
A|-------9---------7--------5-------|-------9---------7----------------|
E|---10---------8--------6----------|---10---------8-------------------|


                                   (Q)
G|----------------------------------|
D|----------------------------------|
A|----------------------------------|
E|-7-7-7-7-7-7-7-7-7-7-7-7-7-7-7----|


                                   (R)
G|----------------------------------|----------------------------------|
D|-------------5-4------------------|-------------5-4------------------|
A|---------3-5--------------3-5-----|---------3-5--------------3-5-----|
E|-3-3-5-5----------3-3-5-5-----3---|-3-3-5-5----------3-3-5-5-----3---|


                                   (S)
G|----------------------------------|----------------------------------|
D|-------------5-4------------------|-------------5-4------------------|
A|---------3-5--------------3-5-----|---------3-5--------------3-5-----|
E|-3-3-5-5----------3-3-5-5-----3---|-3-3-5-5----------3-3-5-5-----3---|


                                   (T)
G|----------------------------------|----------------------------------|
D|----------------------------------|----------------------------------|
A|-----------------5-5-5-5--2-3-2-3-|-----------------5-5-5-5--2-3-2-3-|
E|-5-5-5-5-0-0-0-0------------------|-5-5-5-5-0-0-0-0------------------|


                                   (U)
G|----------------------------------|----------------------------------|
D|----------------------------------|----------------------------------|
A|-----------------5-5-5-5--2-3-2-3-|-----------------5-5-5-5--2-3-2-3-|
E|-5-5-5-5-0-0-0-0------------------|-5-5-5-5-0-0-0-0------------------|


                                   (V)
G|-----------12---------10--------7-|----------------------------------|
D|-------11----------9---------6----|----------10--------8--------6----|
A|---12----------10---------7-------|-------9---------7--------5-------|
E|----------------------------------|---10---------8--------6----------|




Back To Contents

Back To Main Stranglers Index