No More Heroes No More Heroes

No More Heroes



Artist: Stranglers
Album: No More Heroes
Song: No More Heroes
Bassist: Jean Jacques Burnel

By: [email protected]


The intro is playing up & down the G sting finishing on open G


(A) Play 4 times

G|---------------------------------|---------------------------------|
D|---------------------------------|---------------------------------|
A|------------------3---3---3---3--|---------------------------------|
E|--3------3-----------------------|--3---3---3---1------1---1---1---|

(B) Play 8 times 

G|---------------------------------|---------------------------------|
D|---------------------------------|---------------------------------|
A|------------------3---3---3---3--|---------------------------------|
E|--3------3-----------------------|--1---1---1---3------3---3---3---|

(C) Play once

G|---------------------------------|---------------------------------|
D|---------------------------------|---------------------------------|
A|--1---1---1---1---1---1---1---1--|--3---3---3---3---3---3---3---3--|
E|---------------------------------|---------------------------------|

(D) Play once

G|---------------------------------|---------------------------------|
D|---------------------------------|---------------------------------|
A|------1--------------------------|------1--------------------------|
E|--3-------3---1---3------3---1---|--3-------3---1---3------3---1---|

Repeat C,D, 4 X B, C,D,C,D, 2 X A

(E) Play twice

G|---------------------------------|---------------------------------|
D|---------------------------------|---------------------------------|
A|------------------0---0---0---0--|--1---1---1---1---3---3---3---3--|
E|--3---3---3---3------------------|---------------------------------|

(F) Play twice

G|---------------------------------|---------------------------------|
D|---------------------------------|---------------------------------|
A|------------------0---0---0---0--|--1---1---1---1---0---0---0---0--|
E|--3---3---3---3------------------|---------------------------------|


(G) Play twice

G|---------------------------------|---------------------------------|
D|---------------------------------|---------------------------------|
A|------------------0---0---0---0--|--1---1---1---1------------------|
E|--3---3---3---3------------------|-----------------1---1---1---1---|

Repeat 2 x A

(H) Play 8 times, slide up to E3 on last note of the section

G|---------------------------------|---------------------------------|
D|---------------------------------|---------------------------------|
A|---------------------------------|---------------------------------|
E|--6---6---6---6---6---6---6---6--|--8---8---8---8---8---8---8---8--|

Repeat 2 X A, 4 X B, C, D, C, D, 4 X A 



(I) Play 3 times

G|---------------------------------|---------------------------------|
D|---------------------------------|---------------------------------|
A|------1--------------------------|------1--------------------------|
E|--3-------3---1---3--------------|--3-------3---1---3--------------|

(J) Play 2 1/2 times

G|---------------------------------|---------------------------------|
D|---------------------------------|---------------------------------|
A|------1---------------1----------|------1---------------1----------|
E|--3-------3---1---3-------3---1--|--3-------3---1---3-------3---1--|


FINISH ON E3






Back To Contents

Back To Main Stranglers Index