In The Night In The Night

SOUTHERN MOUNTAINS


ARTIST: THE STRANGLERS
SONG: SOUTHERN MOUNTAINS
ALBUM: IN THE NIGHT
BASSIST: JEAN JACQUES BURNEL
TAB BY: [email protected]

R = REST
S = SLIDE



			(A)
G|----------------------------------|---------------------------------|
D|----------------------------------|---------------------------------|
A|---------------5---7---5----------|--------------5---7---5----------|
E|---5---7---8--------------8---7---|--5---7---8---------------8---7--|

REPEAT A
			(B)
G|----------------------------------|---------------------------------|
D|----------------------------------|---------------------------------|
A|---------------5---7---5----------|----------2---5---3---2----------|
E|---5---7---8---------------8---7--|--3---5-------------------5---1--|
						
			(C)
G|----------------------------------|---------------------------------|
D|----------------------------------|---------------------------------|
A|-----------2---5---3---2----------|--------------5---7---5----------|
E|---3---5-------------------5---3--|--5---7---8---------------8---7--|

REPEAT B, C
			(D)
G|----------------------------------|---------------------------------|
D|----------------------------------|---------------------------------|
A|----------------------------------|---------------------------------|
E|---1---1---1---1---1---1---1---1--|--0---0---0---0---0---0---0---0--|

			(E)
G|----------------------------------|---------------------------------|
D|----------------------------------|---------------------------------|
A|----------------------------------|---------------------------------|
E|---3---3---3---3---3---3---3---3--|--1---------------------------0--|

			(F)
G|----------------------------------|---------------------------------|
D|----------------------------------|---------------------------------|
A|----------------------------------|---------------------------------|
E|---1---------------------------0--|--1---0---1---0---1---0---1---3--|

REPEAT A, B, C, B, C, D, E, F

			(G)
G|----------------------------------|---------------------------------|
D|----------------------------------|---------------------------------|
A|----------------------------------|---------------------------------|
E|--5---5---5---5---5---5---5---5-S-|-3---3---3---3---3---3---3---5-S-|

			(H)
G|----------------------------------|---------------------------------|
D|----------------------------------|---------------------------------|
A|----------------------------------|---------------------------------|
E|-6---6---6---6---6---6---6-S--8-S-|--10--10--10--10--10--10--10--5--|

			(I)
G|----------------------------------|---------------------------------|
D|----------------------------------|---------------------------------|
A|----------------------------------|---------------------------------|
E|-8---8---8---8---8---8---8-S--3-S-|-8---8---8---8---8---8---8---8-S-|

REPEAT G
			(J)
G|----------------------------------|---------------------------------|
D|----------------------------------|---------------------------------|
A|----------------------------------|---------------------------------|
E|-6---6---6---6---6---6---6-S--8-S-|--10--10--10--10--10--10--10--10-|

REPEAT A, A, A, A, A. A. A. A. A

			(K)
G|----------------------------------|---------------------------------|
D|----------------------------------|---------------------------------|
A|-----------2---5---3---2----------|----------2---5---3---2----------|
E|---3---5-------------------5---1--|--3---5-------------------5---3--|

			(L)
G|----------------------------------|---------------------------------|
D|----------------------------------|---------------------------------|
A|-----------0---2---3---2---0------|----------0---2---3---2---0------|
E|---1---3-----------------------3--|--1---3-----------------------3--|

REPEAT A, K, L, A, B, C, B, C, D, E

			(M)
G|----------------------------------|---------------------------------|
D|----------------------------------|---------------------------------|
A|----------------------------------|---------------------------------|
E|---1---------------------------0--|--1---------------------------0--|


TEMPO SLOWS
			(N)
G|----------------------------------|---------------------------------|
D|----------------------------------|---------------------------------|
A|----------------------------------|---------------------------------|
E|---1---0---1---0---1---R---3------|-----------0---------------------|


			(O)
G|----------------------------------|---------------------------------|
D|----------------------------------|---------------------------------|
A|----------------------------------|---------------------------------|
E|--0-0-0-0-0-0-0-0-0-R-------------|--0------------------------------|

			(P)
G|----------------------------------|---------------------------------|
D|----------------------------------|---------------------------------|
A|--10------------------------------|---------------------------------|
E|----------------------------------|--0--HOLD------------------------|





Back To Contents

Back To Main Stranglers Index