Nice IN Nice Nice IN Nice

Nice In Nice




 
 SONG: NICE IN NICE
 ARTIST: THE STRANGLERS 
 ALBUM: DREAMTIME
 BASSIST: JEAN JACQUES BURNEL
 TAB BY [email protected]

 
                                   (A)
G|----------------------------------|----------------------------------|
D|----------------------------------|----------------------------------|
A|----------------------------------|----------------------------------|
E|----0---0-0---0-0---0--0-0-0------|----0---0-0---0-0---0--0-0-0------|
			

                                   (B)
G|----------------------------------|----------------------------------|
D|----------------------------------|----------------------------------|
A|----------------------------------|----------------------------------|
E|----0---0-0---0-0---0--0-0-0------|----0---0-0---0-0---0--0-0-0------|


                                   (C)
G|----------------------------------|----------------------------------|
D|----------------------------------|----------------------------------|
A|----------------------------------|-5-5-5-5--4-4-4-0-2---------------|
E|----0---0-0---0-0---0--0-0-0------|---------------------0-0----0-0-0-|


                                   (D)
G|----------------------------------|----------------------------------|
D|----------------------------------|----------------------------------|
A|----------------------------------|-5-5-5-5--4-4-4-0-2---------------|
E|----0---0-0---0-0---0--0-0-0------|---------------------0-0----0-0-0-|


                                   (E)
G|----------------------------------|----------------------------------|
D|----------------------------------|----------------------------------|
A|----------------------------------|----------------------------------|
E|-5---5-5---5-5----3---3-3---3-3---|----0---0-0---0-0---0--0-0-0------|


                                   (F)
G|----------------------------------|----------------------------------|
D|----------------------------------|----------------------------------|
A|----------------------------------|----------------------------------|
E|-5---5-5---5-5----3---3-3---3-3---|----0---0-0---0-0---0--0-0-0------|


                                   (G)
G|----------------------------------|----------------------------------|
D|----------------------------------|----------------------------------|
A|----------------------------------|----------------------------------|
E|-3---3-3---3-3---5---5-5---5-5----|----0---0-0---0-0---0--0-0-0------|


                                   (H)CHORUS
G|----------------------------------|----------------------------------|
D|----------------------------------|----------------------------------|
A|----------------------------------|-------5--5-----------------------|
E|-3---3-3---3-3----5---5-5---5-5---|-7--7---------5--5--5---5--7--5---|


                                   (I)
G|----------------------------------|----------------------------------|
D|----------------------------------|----------------------------------|
A|-------5--5-----------------------|-------5--5-----------------------|
E|-7--7--------5--5--5---5--7--5----|-7--7--------5--5--5---5--7--5----|


                                   (J)
G|----------------------------------|
D|----------------------------------|
A|-------5--5-----------------------|
E|-7--7--------5--5--5---5--7--5----|


                                   (K)
G|----------------------------------|----------------------------------|
D|----------------------------------|----------------------------------|
A|----------------------------------|----------------------------------|
E|----0---0-0---0-0---0--0-0-0------|----0---0-0---0-0---0--0-0-0------|


                                   (L)
G|----------------------------------|----------------------------------|
D|----------------------------------|----------------------------------|
A|----------------------------------|-5-5-5-5--4-4-4-0-2---------------|
E|----0---0-0---0-0---0--0-0-0------|---------------------0-0----0-0-0-|


                                   (M)
G|----------------------------------|----------------------------------|
D|----------------------------------|----------------------------------|
A|----------------------------------|-5-5-5-5--4-4-4-0-2---------------|
E|----0---0-0---0-0---0--0-0-0------|---------------------0-0----0-0-0-|


                                   (N)
G|----------------------------------|----------------------------------|
D|----------------------------------|----------------------------------|
A|----------------------------------|----------------------------------|
E|-5---5-5---5-5----3---3-3---3-3---|----0---0-0---0-0---0--0-0-0------|


                                   (O)
G|----------------------------------|----------------------------------|
D|----------------------------------|----------------------------------|
A|----------------------------------|----------------------------------|
E|-5---5-5---5-3----3---3-3---3-3---|----0---0-0---0-0---0--0-0-0------|


                                   (P)
G|----------------------------------|----------------------------------|
D|----------------------------------|----------------------------------|
A|----------------------------------|----------------------------------|
E|-3---3-3---3-3----5---5-5---5-5---|----0---0-0---0-0---0--0-0-0------|


                                   (Q)CHORUS
G|----------------------------------|----------------------------------|
D|----------------------------------|----------------------------------|
A|----------------------------------|-------5--5-----------------------|
E|-3---3-3---3-3----5---5-5---5-5---|-7--7---------5--5--5---5--7--5---|


                                   (R)
G|----------------------------------|----------------------------------|
D|----------------------------------|----------------------------------|
A|-------5--5-----------------------|-------5--5-----------------------|
E|-7--7--------5--5--5---5--7--5----|-7--7--------5--5--5---5--7--5----|


                                   (S)
G|----------------------------------|----------------------------------|
D|----------------------------------|----------------------------------|
A|-------5--5-----------------------|------------3--3--3-3-------------|
E|-7--7--------5--5--5---5--7--5----|-3--3--3-3--------------5--5--5-5-|


                                   (T)
G|----------------------------------|----------------------------------|
D|----------------------------------|----------------------------------|
A|-5--5--5-5------------------------|----------------------------------|
E|------------5--5--5-5---1--1--1-1-|-5--5--5-5---1--1--1-1---5--5--5-5-|


                                   (U)
G|----------------------------------|----------------------------------|
D|----------------------------------|----------------------------------|
A|----------------------------------|----------------------------------|
E|-7---7---7---7---7---7---7---7----|-7---7---7---7---7---7---7---7----|
			

                                   (V)
G|----------------------------------|----------------------------------|
D|----------------------------------|----------------------------------|
A|----------------------------------|-5-5-5-5--4-4-4-0-2---------------|
E|----0---0-0---0-0---0--0-0-0------|---------------------0-0----0-0-0-|


                                   (W)
G|----------------------------------|----------------------------------|
D|----------------------------------|----------------------------------|
A|----------------------------------|-5-5-5-5--4-4-4-0-2---------------|
E|----0---0-0---0-0---0--0-0-0------|---------------------0-0----0-0-0-|


                                   (X)
G|----------------------------------|----------------------------------|
D|----------------------------------|----------------------------------|
A|----------------------------------|----------------------------------|
E|-5---5-5---5-5----3---3-3---3-3---|----0---0-0---0-0---0--0-0-0------|


                                   (Y)
G|----------------------------------|----------------------------------|
D|----------------------------------|----------------------------------|
A|----------------------------------|----------------------------------|
E|-5---5-5---5-5----3---3-3---3-3---|----0---0-0---0-0---0--0-0-0------|


                                   (Z)
G|----------------------------------|----------------------------------|
D|----------------------------------|----------------------------------|
A|----------------------------------|----------------------------------|
E|-3---3-3---3-3----5---5-5---5-5---|----0---0-0---0-0---0--0-0-0------|


                                   (AA)CHORUS
G|----------------------------------|----------------------------------|
D|----------------------------------|----------------------------------|
A|----------------------------------|-------5--5-----------------------|
E|-3---3-3---3-3----5---5-5---5-5---|-7--7---------5--5--5---5--7--5---|


                                   (AB)
G|----------------------------------|----------------------------------|
D|----------------------------------|----------------------------------|
A|-------5--5-----------------------|-------5--5-----------------------|
E|-7--7--------5--5--5---5--7--5----|-7--7--------5--5--5---5--7--5----|


                                   (AC)
G|----------------------------------|----------------------------------|
D|----------------------------------|----------------------------------|
A|-------5--5-----------------------|-------5--5-----------------------|
E|-7--7--------5--5--5---5--7--5----|-7--7--------5--5--5---7--5--7----|

 REPEAT AC UNTIL THE SONG FADES OUT




Back To Contents

Back To Main Stranglers Index