Rattus Norvegicus Rattus Norvegicus

Peaches


ARTIST: THE STRANGLERS
SONG: PEACHES
ALBUM: RATTUS NORVEGICUS
BASSIST: JEAN JACQUES BURNEL
R = REST
TAB BY: [email protected]

			
			(A)
G|----------------------------------|---------------------------------|
D|----------------------------------|---------------------------------|
A|---6-------------4--R-------------|---------------------------------|
E|-----------6----------------------|----------6-6---6--4------2------|

REPEAT A 

			(B)
G|----------------------------------|---------------------------------|
D|----------------------------------|---------------------------------|
A|--6---6--6---6--4-------4---------|---------------------------------|
E|-----------------------------6----|----------6-6---6--4------2------|

REPEAT A 4 TIMES

REPEAT B 

REPEAT A 6 TIMES

REPEAT B

REPEAT A 8 TIMES

REPEAT B

REPEAT A 7 TIMES

REPEAT B

REPEAT A 6 TIMES

REPEAT B 

REPEAT A 3 TIMES


		
			(C)
G|----------------------------------|--------------------------------|
D|---------------7---6--R-----------|--------------------------------|
A|--6-------------------------------|--------------------------------|
E|----------------------------------|--------------------------------|

	
			(D)
G|----------------------------------|--------------------------------|
D|----------------------------------|--------------------------------|
A|---------------7---6--R-----------|--------------------------------|
E|--6-------------------------------|--------------------------------|				


			(E)
G|----------------------------------|--------------------------------|
D|---------------7---6--R-----------|--------------------------------|
A|--6-------------------------------|-----------------7---6--R-------|
E|----------------------------------|--6-----------------------------|


				(F)
G|----------------------------------|--------------------------------|
D|----------------------------------|--------------------------------|
A|----------------5---4--R----------|-----------------3----2--R------|
E|--4-------------------------------|--2-----------------------------|



REPEAT A 15 TIMES

REPEAT C, D , E ,F

REPEAT A 4 TIMES

REPEAT B 2 TIMES

			(G)
G|----------------------------------|--------------------------------|
D|----------------------------------|--------------------------------|
A|----------------------------------|--------------------------------|
E|---R------------------------------|--------------------------------|


			(H)
G|----------------------------------|--------------------------------|
D|----------------------------------|--------------------------------|
A|--6-R-----------------------------|--------------------------------|
E|----------------------------------|--------------------------------|




Back To Contents

Back To Main Stranglers Index