About time About time

Paradise Row


SONG: PARADISE ROW
ARTIST: THE STRANGLERS
ALBUM: ABOUT TIME
BASSIST: JEAN JACQUES BURNEL
TAB BY [email protected]

R = REST

BASS COMES IN AT 32 SEC


G|----------------------------------|---------------------------------|
D|----------------------------------|---------------------------------|
A|----------------------------------|---------------------------------|
E|----------------------------------|---9---9---9---9---9---R---------|



			(A)
G|----------------------------------|---------------------------------|
D|----------------------------------|---------------------------------|
A|---9------R---9-----------7---7---|--9------R---9-----------7---7---|
E|------------------9---9-----------|-----------------9---9-----------|

REPEAT A 3 TIMES

				
			(B)
G|----------------------------------|---------------------------------|
D|----------------------------------|---------------------------------|
A|---7---7---R---7---5---5---R---5--|---------------------------------|
E|----------------------------------|--2---2---R---2---R---0---2---5--|


REPEAT B 
			
			(C)
G|----------------------------------|---------------------------------|
D|----------------------------------|---------------------------------|
A|----------------------------------|----------------------4----------|
E|---7---7---R---5---7---7---R---5--|--7---7---R---5---7-------7---5--|


			(D)
G|----------------------------------|---------------------------------|
D|----------------------------------|---------------------------------|
A|----------------------------------|---------------------------------|
E|---2---2---R---2---R---0---2---0--|--2---2---R---2---R---0---2---5--|


REPEAT C

				
			(E)			
G|----------------------------------|---------------------------------|
D|----------------------------------|---------------------------------|
A|----------------------------------|---------------------------------|
E|---2---2---R---2---R---2---5---7--|--9---9---9---9---9---R----------|						

REPEAT A 4 TIMES

REPEAT B, B, C, D, C
 
			(F)
G|----------------------------------|---------------------------------|
D|----------------------------------|---------------------------------|
A|----------------------------------|---------------------------------|
E|---2---2---R---2---R---2---5---7--|--9---9---9---9---9---9---9---9--|



			(G)
G|----------------------------------|---------------------------------|
D|----------------------------------|---------------------------------|
A|----------------------------------|----------------------5----------|
E|---7---7---R---5---7---7---R---5--|--7---7---R---5---7-------7---5--|


REPEAT G

			(H)
G|----------------------------------|---------------------------------|
D|----------------------------------|---------------------------------|
A|----------------------------------|----------------------0----------|
E|---2---2---R---0---2---2---R---0--|--2---2---R---0---2-------2---0--|



			(I)
G|----------------------------------|---------------------------------|
D|----------------------------------|---------------------------------|
A|----------------------------------|---------------------------------|
E|---2---2---R---0---2---2---R---0--|--2---2---R---0---2---0---2---5--|


REPEAT G, G, H

			(J)
G|----------------------------------|---------------------------------|
D|----------------------------------|---------------------------------|
A|---7---7---7---7---7---7---7---7--|--7---7---7---7---7---7---7---7--|
E|----------------------------------|---------------------------------|


REPEAT A 4 TIMES

			(K)
G|----------------------------------|---------------------------------|
D|----------------------------------|---------------------------------|
A|---7---7---7---7---7---7---7---7--|--7---7---7---7---7---R----------|
E|----------------------------------|---------------------------------|


REPEAT A UNTIL FADE OUT



Back To Contents

Back To Main Stranglers Index