Top Secret


 SONG:TOP SECRET
 ARTIST: THE STRANGLERS
 ALBUM: OFF THE BEATEN TRACK
 BASSIST: JEAN JACQUES BURNEL
 TAB BY [email protected]

 S/=SLIDE UP

 R=REST

 
                                   (A)
G|----------------------------------|----------------------------------|
D|----------------------------------|----------------------------------|
A|----------------------------------|----------------------------------|
E|--5---5---5---7------7---7-S/-----|--12---12---12---11---11---9------|


                                   (B)
G|----------------------------------|----------------------------------|
D|----------------------------------|----------------------------------|
A|----------------------------------|----------------------------------|
E|--5---5---5---7------7---7-S/-----|--12---12---12---11---11---9------|


                                   (C)
G|----------------------------------|----------------------------------|
D|----------------------------------|----------------------------------|
A|--5---5---5---7------7---7-S/-----|--12--12--12--11---11-9-11-9-7-5--|
E|----------------------------------|----------------------------------|


                                   (D)
G|--4---6----------4----------------|--4---6----------4----------------|
D|----------8--8-------6------------|----------8--8-------6------------|
A|-------------------------4--4-----|-------------------------4--4-----|
E|----------------------------------|----------------------------------|


                                   (E)
G|----------------------------------|----------------------------------|
D|----------------------------------|----------------------------------|
A|--2----4---4--4----2--------------|----------------------------------|
E|----------------------0---0--0----|-4--2---2--2-2-2-2-R--2---2--2-2-2-2|


                                   (F)
G|------6----------4----------------|--4---6----------4----------------|
D|----------8--8-------6------------|----------8--8-------6------------|
A|-------------------------4--4-----|-------------------------4--4-----|
E|----------------------------------|----------------------------------|


                                   (G)
G|----------------------------------|----------------------------------|
D|----------------------------------|----------------------------------|
A|--2----4---4--4----2--------------|----------------------------------|
E|----------------------0---0--0----|-4--2---2--2-2-2-2-R--2---2--2-2-2-2|


                                   (H)
G|----------------------------------|----------------------------------|
D|----------------------------------|----------------------------------|
A|----------------------------------|----------------------------------|
E|--5---5---5---7------7---7-S/-----|--12---12---12---11---11---9------|


                                   (I)
G|----------------------------------|----------------------------------|
D|----------------------------------|----------------------------------|
A|--5---5---5---7------7---7-S/-----|--12--12--12--11---11-9-11-9-7-5--|
E|----------------------------------|----------------------------------|


                                   (J)
G|----------------------------------|----------------------------------|
D|----------------------------------|----------------------------------|
A|--7--7--5-R-------------7--7------|-------------------------7--7-----|
E|------------------------------7-R-|-------------------------------7--|


                                   (K)
G|--4---6----------4----------------|--4---6----------4----------------|
D|----------8--8-------6------------|----------8--8-------6------------|
A|-------------------------4--4-----|-------------------------4--4-----|
E|----------------------------------|----------------------------------|


                                   (L)
G|----------------------------------|----------------------------------|
D|----------------------------------|----------------------------------|
A|--2----4---4--4----2--------------|----------------------------------|
E|----------------------0---0--0----|-4--2---2--2-2-2-2-R--2---2--2-2-2-2|


                                   (M)
G|------6----------4----------------|--4---6----------4----------------|
D|----------8--8-------6------------|----------8--8-------6------------|
A|-------------------------4--4-----|-------------------------4--4-----|
E|----------------------------------|----------------------------------|


                                   (N)
G|----------------------------------|----------------------------------|
D|----------------------------------|----------------------------------|
A|--2----4---4--4----2--------------|----------------------------------|
E|----------------------0---0--0----|-4--2---2--2-2-2-2-R--2---2--2-2-2-2|



                                   (O)
G|----------------------------------|----------------------------------|
D|----------------------------------|----------------------------------|
A|----------------------------------|----------------------------------|
E|--5---5---5---7------7---7-S/-----|--12---12---12---11---11---9------|


                                   (P)
G|----------------------------------|----------------------------------|
D|----------------------------------|----------------------------------|
A|--5---5---5---7------7---7-S/-----|--12--12--12--11---11-9-11-9-7-5--|
E|----------------------------------|----------------------------------|



                                   (Q)
G|----------------------------------|----------------------------------|
D|----------------------------------|----------------------------------|
A|--7--7--5-R-------------7--7------|-------------------------7--7-----|
E|------------------------------7-R-|-------------------------------7--|


                                   (R)
G|----------------------------------|----------------------------------|
D|----------------------------------|----------------------------------|
A|--7-6-7-6-------------------------|--7-6-7-6-------------------------|
E|----------7-7-7-7-7-7-7-7-7-7-7-7-|----------7-7-7-7-7-7-7-7-7-7-7-7-|


                                   (S)
G|----------------------------------|----------------------------------|
D|----------------------------------|----------------------------------|
A|--5-4-5-4-------------------------|--5-4-5-4-------------------------|
E|----------5-5-5-5-5-5-5-5-5-5-5-5-|----------5-5-5-5-5-5-5-5-5-5-5-5-|


                                   (T)
G|----------------------------------|----------------------------------|
D|----------------------------------|----------------------------------|
A|--7-6-7-6-------------------------|--7-6-7-6-------------------------|
E|----------7-7-7-7-7-7-7-7-7-7-7-7-|----------7-7-7-7-7-7-7-7-7-7-7-7-|


                                   (U)
G|----------------------------------|----------------------------------|
D|----------------------------------|----------------------------------|
A|--5-4-5-4-------------------------|--5-4-5-4-------------------------|
E|----------5-5-5-5-5-5-5-5-5-5-5-5-|----------5-5-5-5-5-5-5-5-5-5-5-5-|


                                   (V)
G|----------------------------------|----------------------------------|
D|----------------------------------|----------------------------------|
A|----------------------------------|----------------------------------|
E|--7-5-7-5-3-3-3-3-3-3-3-3-3-3-3-3-|--7-5-7-5-3-3-3-3-3-3-3-3-3-3-3-3-|


                                   (W)
G|----------------------------------|----------------------------------|
D|----------------------------------|----------------------------------|
A|----------------------------------|----------------------------------|
E|--5-4-5-4-0-0-0-0-0-0-0-0-0-0-0-0-|--5-4-5-4-0-0-0-0-0-0-0-0-0-0-0-0-|


                                   (X)
G|----------------------------------|----------------------------------|
D|----------------------------------|----------------------------------|
A|--7-6-7-6-------------------------|--7-6-7-6-------------------------|
E|----------7-7-7-7-7-7-7-7-7-7-7-7-|----------7-7-7-7-7-7-7-7-7-7-7-7-|


                                   (Y)
G|----------------------------------|----------------------------------|
D|----------------------------------|----------------------------------|
A|--5-4-5-4-------------------------|--5-4-5-4-------------------------|
E|----------5-5-5-5-5-5-5-5-5-5-5-5-|----------5-5-5-5-5-5-5-5-5-5-5-5-|


                                   (Z)
G|----------------------------------|----------------------------------|
D|----------------------------------|----------------------------------|
A|--7-6-7-6-------------------------|--7-6-7-6-------------------------|
E|----------7-7-7-7-7-7-7-7-7-7-7-7-|----------7-7-7-7-7-7-7-7-7-7-7-7-|


                                   (AA)
G|----------------------------------|----------------------------------|
D|----------------------------------|----------------------------------|
A|--5-4-5-4-------------------------|--5-4-5-4-------------------------|
E|----------5-5-5-5-5-5-5-5-5-5-5-5-|----------5-5-5-5-5-5-5-5-5-5-5-5-|


                                   (AB)
G|----------------------------------|----------------------------------|
D|----------------------------------|----------------------------------|
A|----------------------------------|----------------------------------|
E|--7-5-7-5-3-3-3-3-3-3-3-3-3-3-3-3-|--7-5-7-5-3-3-3-3-3-3-3-3-3-3-3-3-|


                                   (AC)
G|----------------------------------|----------------------------------|
D|----------------------------------|----------------------------------|
A|----------------------------------|----------------------------------|
E|--5-4-5-4-0-0-0-0-0-0-0-0-0-0-0-0-|--5-4-5-4-0-0-0-0-0-0-0-0-0-------|

Back To Contents

Back To Main Stranglers Index