Nice IN Nice Nice IN Nice

Shakin' Like A Leaf



 SONG: SHAKIN' LIKE A LEAF
 ARTIST: THE STRANGLERS
 ALBUM: DREAMTIME
 BASSIST: JEAN JACQUES BURNEL
 TAB BY [email protected]

 
                                   (A)
G|----------------------------------|----------------------------------|
D|-2--2----0--0---------------------|-2--2----0--0---------------------|
A|-----------------3--3----2--2-----|-----------------3--3----2--2-----|
E|----------------------------------|----------------------------------|


                                   (B)
G|----------------------------------|----------------------------------|
D|-2--2----0--0---------------------|-2--2----0--0---------------------|
A|-----------------3--3----2--2-----|-----------------3--3----2--2-----|
E|----------------------------------|----------------------------------|


                                   (C)
G|----------------------------------|----------------------------------|
D|----------------------3--0--2--0--|----------------------3--0--2--0--|
A|-0--0---3--3---5--5---------------|-0--0---3--3---5--5---------------|
E|----------------------------------|----------------------------------|


                                   (D)
G|----------------------------------|----------------------------------|
D|----------------------3--0--2--0--|-2--2----0--0---------------------|
A|-0--0---3--3---5--5---------------|-----------------3--3----2--2-----|
E|----------------------------------|----------------------------------|


                                   (E)
G|----------------------------------|----------------------------------|
D|----------------------3--0--2--0--|----------------------3--0--2--0--|
A|-0--0---3--3---5--5---------------|-0--0---3--3---5--5---------------|
E|----------------------------------|----------------------------------|


                                   (F)
G|----------------------------------|----------------------------------|
D|----------------------3--0--2--0--|-2--2----0--0---------------------|
A|-0--0---3--3---5--5---------------|-----------------3--3----2--2-----|
E|----------------------------------|----------------------------------|


                                   (G)
G|----------------------------------|----------------------------------|
D|----------------------------------|----------------------------------|
A|---5---3---2---0----3---2---0-----|-------------------0---2---3---4--|
E|--------------------------------3-|---0---2---3---4------------------|


                                   (H)
G|----------------------------------|----------------------------------|
D|----------------------------------|-2---0----------------------------|
A|---5---3---2---0----3---2---0-----|---------3---2--------------------|
E|-------------------------------3--|----------------------------------|


                                   (I)
G|----------------------------------|----------------------------------|
D|-2--2----0--0---------------------|-2--2----0--0---------------------|
A|-----------------3--3----2--2-----|-----------------3--3----2--2-----|
E|----------------------------------|----------------------------------|


                                   (J)
G|----------------------------------|
D|-2--2----0--0---------------------|
A|-----------------3--3----2--2-----|
E|----------------------------------|


                                   (K)
G|----------------------------------|----------------------------------|
D|----------------------3--0--2--0--|----------------------3--0--2--0--|
A|-0--0---3--3---5--5---------------|-0--0---3--3---5--5---------------|
E|----------------------------------|----------------------------------|


                                   (L)
G|----------------------------------|----------------------------------|
D|----------------------3--0--2--0--|-2--2----0--0---------------------|
A|-0--0---3--3---5--5---------------|-----------------3--3----2--2-----|
E|----------------------------------|----------------------------------|


                                   (M)
G|----------------------------------|----------------------------------|
D|----------------------3--0--2--0--|----------------------3--0--2--0--|
A|-0--0---3--3---5--5---------------|-0--0---3--3---5--5---------------|
E|----------------------------------|----------------------------------|


                                   (N)
G|----------------------------------|----------------------------------|
D|----------------------3--0--2--0--|-2--2----0--0---------------------|
A|-0--0---3--3---5--5---------------|-----------------3--3----2--2-----|
E|----------------------------------|----------------------------------|
			

                                   (O)
G|----------------------------------|----------------------------------|
D|----------------------------------|----------------------------------|
A|---5---3---2---0----3---2---0-----|-------------------0---2---3---4--|
E|--------------------------------3-|---0---2---3---4------------------|


                                   (P)
G|----------------------------------|----------------------------------|
D|----------------------------------|-2---0----------------------------|
A|---5---3---2---0----3---2---0-----|---------3---2--------------------|
E|-------------------------------3--|----------------------------------|


                                   (Q)
G|----------------------------------|----------------------------------|
D|-2--2----0--0---------------------|-2--2----0--0---------------------|
A|-----------------3--3----2--2-----|-----------------3--3----2--2-----|
E|----------------------------------|----------------------------------|


                                   (R)
G|----------------------------------|
D|-2--2----0--0---------------------|
A|-----------------3--3----2--2-----|
E|----------------------------------|


                                   (S)
G|----------------------------------|----------------------------------|
D|----------------------3--0--2--0--|----------------------3--0--2--0--|
A|-0--0---3--3---5--5---------------|-0--0---3--3---5--5---------------|
E|----------------------------------|----------------------------------|


                                   (T)
G|----------------------------------|----------------------------------|
D|----------------------3--0--2--0--|-2--2----0--0---------------------|
A|-0--0---3--3---5--5---------------|-----------------3--3----2--2-----|
E|----------------------------------|----------------------------------|


                                   (U)
G|----------------------------------|----------------------------------|
D|----------------------3--0--2--0--|----------------------3--0--2--0--|
A|-0--0---3--3---5--5---------------|-0--0---3--3---5--5---------------|
E|----------------------------------|----------------------------------|


                                   (V)
G|----------------------------------|----------------------------------|
D|----------------------3--0--2--0--|-2--2----0--0---------------------|
A|-0--0---3--3---5--5---------------|-----------------3--3----2--2-----|
E|----------------------------------|----------------------------------|


                                   (W)
G|----------------------------------|----------------------------------|
D|----------------------3--0--2--0--|----------------------3--0--2--0--|
A|-0--0---3--3---5--5---------------|-0--0---3--3---5--5---------------|
E|----------------------------------|----------------------------------|


                                   (X)
G|----------------------------------|----------------------------------|
D|----------------------3--0--2--0--|-2--2----0--0---------------------|
A|-0--0---3--3---5--5---------------|-----------------3--3----2--2-----|
E|----------------------------------|----------------------------------|


                                   (Y)
G|----------------------------------|----------------------------------|
D|----------------------------------|----------------------------------|
A|--0----0--0--0--------------------|----------------------------------|
E|----------------------------------|----------------------------------|


Back To Contents

Back To Main Stranglers Index