No More Heroes No More Heroes

Peasant In The Big Shitty


 SONG: PEASANT IN THE BIG SHITTY
 ARTIST: THE STRANGLERS
 ALBUM: NO MORE HEROES
 BASSIST: JEAN JACQUES BURNEL
 TAB BY [email protected]

 
 S/=SLIDE UP
 
 R=REST
 

 
                                   (A)
G|----------------------------------|----------------------------------|
D|----------------------------------|----------------------------------|
A|----------------------------------|----------------------------------|
E|-0--3--0--3--0--3--6--5--0--5--0--|--3--0--3--0--3--6--5--0--5--0----|


                                   (B)
G|----------------------------------|----------------------------------|
D|----------------------------------|----------------------------------|
A|----------------------------------|----------------------------------|
E|--3--0--3--0--3--6--5--0--5--0----|--3--0--3--0--3--6--5--0--5--0----|


                                   (C)
G|----------------------------------|----------------------------------|
D|----------------------------------|----------------------------------|
A|----------------------------------|----------------------------------|
E|--3--0--3--0--3--6--5--0--5--0----|--3--0--3--0--3--6--5--0--5--0----|


                                   (D)
G|----------------------------------|----------------------------------|
D|----------------------------------|----------------------------------|
A|----------------------------------|----------------------------------|
E|--3--0--3--0--3--6--5--0--5--0----|--3--0--3--0--3--6--5--0--5--0----|


                                   (E)
G|----------------------------------|----------------------------------|
D|----------------------------------|----------------------------------|
A|----------------------------------|----------------------------------|
E|--3--0--3--0--3--6--5--0--5--0----|--3--0--3--0--3--6--5--0--5--0----|


                                   (F)
G|----------------------------------|----------------------------------|
D|----------------------------------|----------------------------------|
A|----------------------------------|----------------------------------|
E|--3--0--3--0--3--6--5--0--5--0----|--3--0--3--0--3--6--5--0--5--0----|


                                   (G)
G|----------------------------------|----------------------------------|
D|----------------------------------|----------------------------------|
A|----------------------------------|----------------------------------|
E|--3--0--3--0--3--6--5--0--5--0----|--3--0--3--0--3--6--5--0--5--0----|


                                   (H)
G|----------------------------------|----------------------------------|
D|----------------------------------|----------------------------------|
A|----------------------------------|----------------------------------|
E|--3--0--3--0--3--6--5--0--5--0----|--3--0--3--0--3--6--5--0--5--0----|


                                   (I)
G|----------------------------------|----------------------------------|
D|----------------------------------|----------------------------------|
A|----------------------------------|----------------------------------|
E|--3--0--3--0--3--6--5--0--5--0----|--3--0--3--0--3--6--5--0--5--0----|


                                   (J)
G|----------------------------------|----------------------------------|
D|----------------------------------|----------------------------------|
A|----------------------------------|----------------------------------|
E|--3--0--3--0--3--6--5--0--5--0----|--3--0--3--0--3--6--5--0--5--0----|


                                   (K)
G|----------------------------------|----------------------------------|
D|----------------------------------|----------------------------------|
A|----------------------------------|----------------------------------|
E|--3--0--3--0--3--6--5--0--5--0----|--3--0--3--0--3--6--5--0--5--0----|


                                   (L)
G|----------------------------------|----------------------------------|
D|----------------------------------|----------------------------------|
A|----------------------------------|----------------------------------|
E|--3--0--3--0--3--6--5--0--5--0----|--3--0--3--0--3--6--5--0--5--0----|


                                   (M)
G|----------------------------------|----------------------------------|
D|----------------------------------|----------------------------------|
A|----------------------------------|----------------------------------|
E|--3--0--3--0--3--6--5--0--5--0----|-3--0--3--0--3--6--5--0--5--6-----|
			

                                   (N)
G|------------------6--7--9--11-----|------------------6---7---9---11--|
D|--------------7-------------------|--------------7-------------------|
A|----------9-----------------------|----------9-----------------------|
E|-7---10---------------------------|-7---10---------------------------|


                                   (O)
G|------------------6--7--9--11-----|------------------6---7---9---11--|
D|--------------7-------------------|--------------7-------------------|
A|----------9-----------------------|----------9-----------------------|
E|-7---10---------------------------|-7---10---------------------------|


                                   (P)
G|------------------6--7--9--11-----|-11--11--11--11--11--11--11--11---|
D|--------------7-------------------|----------------------------------|
A|----------9-----------------------|----------------------------------|
E|-7---10---------------------------|----------------------------------|


                                   (Q)
G|-9---9---9---9---9---9---9---9----|-7---7---7---7---7---7---7---7----|
D|----------------------------------|----------------------------------|
A|----------------------------------|----------------------------------|
E|----------------------------------|----------------------------------|


                                   (R)
G|-6---6---6---6---6---6---6---6----|-4---4---4---4---4---4---4---4----|
D|----------------------------------|----------------------------------|
A|----------------------------------|----------------------------------|
E|----------------------------------|----------------------------------|


                                   (S)
G|----------------------------------|-S/-11-R--------------------------|
D|-2---2---2---2---2---2---2---2----|----------------------------------|
A|----------------------------------|----------------------------------|
E|----------------------------------|----------------------------------|


                                   (T)
G|--9-R---------------7-R-----------|--6-R---------4-R-----------------|
D|----------------------------------|------------------------------2-R-|
A|----------------------------------|----------------------------------|
E|----------------------------------|----------------------------------|


                                   (U)
G|----------------------------------|----------------------------------|
D|----------------------------------|----------------------------------|
A|----------------------------------|----------------------------------|
E|-0--3--0--3--0--3--6--5--0--5--0--|--3--0--3--0--3--6--5--0--5--0----|


                                   (V)
G|----------------------------------|----------------------------------|
D|----------------------------------|----------------------------------|
A|----------------------------------|----------------------------------|
E|--3--0--3--0--3--6--5--0--5--0----|--3--0--3--0--3--6--5--0--5--0----|


                                   (W)
G|----------------------------------|----------------------------------|
D|----------------------------------|----------------------------------|
A|----------------------------------|----------------------------------|
E|--3--0--3--0--3--6--5--0--5--0----|--3--0--3--0--3--6--5--0--5--0----|


                                   (X)
G|----------------------------------|----------------------------------|
D|----------------------------------|----------------------------------|
A|----------------------------------|----------------------------------|
E|--3--0--3--0--3--6--5--0--5--0----|--3--0--3--0--3--6--5--0--5--0----|


                                   (Y)
G|----------------------------------|----------------------------------|
D|----------------------------------|----------------------------------|
A|----------------------------------|----------------------------------|
E|--3--0--3--0--3--6--5--0--5--0----|--3--0--3--0--3--6--5--0--5--0----|


                                   (Z)
G|----------------------------------|----------------------------------|
D|----------------------------------|----------------------------------|
A|----------------------------------|----------------------------------|
E|--3--0--3--0--3--6--5--0--5--0----|--3--0--3--0--3--6--5--0--5--0----|


                                   (AA)
G|----------------------------------|----------------------------------|
D|----------------------------------|----------------------------------|
A|----------------------------------|----------------------------------|
E|---5---6---5---3---5---3----------|---5---6---5---3---5---3----------|


                                   (AB)
G|----------------------------------|----------------------------------|
D|----------------------------------|----------------------------------|
A|----------------------------------|----------------------------------|
E|---5---6---5---3---5---3----------|---5---6---5---3---5---3----------|


                                   (AC)
G|----------------------------------|----------------------------------|
D|----------------------------------|----------------------------------|
A|----------------------------------|----------------------------------|
E|---5---6---5---3---5---3----------|---5---6---5---3---5---3----------|


                                   (AD)
G|----------------------------------|----------------------------------|
D|----------------------------------|----------------------------------|
A|----------------------------------|----------------------------------|
E|---5---6---5---3---5---3----------|--3-3-3-3-3-3-3-3-3-3-3-3-3-3-3-3-|
3

                                   (AE)
G|----------------------------------|----------------------------------|
D|----------------------------------|----------------------------------|
A|----------------------------------|----------------------------------|
E|-3-3-3-3-3-3-3-3-3-3-3-3-3-3-3-3--|-3-3-3-3-3-3-3-3-3-3-3-5-5-6-7-10-|
                                                           

Back To Contents

Back To Main Stranglers Index