Singles (The UA Years) Singles (The UA Years)

Straighten Out




 
 SONG: STRAIGHTEN OUT 
 ARTIST: THE STRANGLERS 
 ALBUM: SINGLES THE U.A. YEARS
 BASSIST: JEAN JACQUES BURNEL
 TAB BY [email protected]

 (0)=DO NOT PICK
                                   (A)
G|----------------------------------|----------------------------------|
D|-------5--------------5-----------|-------5-------------5------------|
A|----7-----7--5----7------7--5-----|----7-----7--5----7-----7--5------|
E|----------------------------------|----------------------------------|
 			

                                   (B)
G|----------------------------------|----------------------------------|
D|-------5-------------5------------|-------5--------------------------|
A|----7-----7--5----7-----7--5------|----7-----7--5----7--5--7--5------|
E|----------------------------------|----------------------------------|
 

                                   (C)
G|----------------------------------|----------------------------------|
D|-------5-------------5------------|-------5-------------5------------|
A|----7-----7--5----7-----7--5------|----7-----7--5----7-----7--5------|
E|----------------------------------|----------------------------------|


                                   (D)
G|----------------------------------|----------------------------------|
D|-------5-------------5------------|-------5-------------5------------|
A|----7-----7--5----7-----7--5------|----7-----7--5----7-----7--5------|
E|----------------------------------|----------------------------------|


                                   (E)
G|----------------------------------|----------------------------------|
D|-------5-------------5------------|----------------------------------|
A|----7-----7--5----7-----7--5------|----7--5--7--5--7--5--7--5--------|
E|----------------------------------|----------------------------------|


 VERSE                             (F)
G|----------------------------------|----------------------------------|
D|----------------------------------|----------------------------------|
A|----------------------------------|----------------------------------|
E|-3-3-3-3-3-3-3-3--3-3-3-3-3-3-3-3-|-3--5--0--11-12---3--5--0--11-12-(0)-|


                                   (G)
G|----------------------------------|----------------------------------|
D|----------------------------------|----------------------------------|
A|----------------------------------|----------------------------------|
E|-3-3-3-3-3-3-3-3--3-3-3-3-3-3-3-3-|-3--5--0--11-12---3--5--0--11-12-(0)-|


                                   (H)
G|----------------------------------|----------------------------------|
D|----------------------------------|----------------------------------|
A|-7-7-7-7--------------------------|-7-7-7-7--------------------------|
E|---------7-7-7-7--8-8-8-8-5-5-5-5-|---------7-7-7-7--8-8-8-8-5-5-5-5-|


                                   (I)CHORUS
G|----------------------------------|----------------------------------|
D|----------------------------------|----------------------------------|
A|-7-7-7-7--------------------------|-3-3-3-3-3-3--5--0-0-0-0-0-0-0-0--|
E|---------7-7-7-7--8-8-8-8-5-5-5-5-|----------------------------------|


                                   (J)
G|----------------------------------|----------------------------------|
D|----------------------------------|----------------------------------|
A|-------------------------7-7-5-5--|-3-3-3-3-3-3--5--0-0-0-0-0-0-0-0--|
E|-3-3-3-3-3-3--5--0-0-0-0----------|----------------------------------|


                                   (K)
G|----------------------------------|
D|----------------------------------|
A|----------------------------------|
E|-3-3-3-3-3-3--5---0-2-3-5-6-6-5-0-|

 REPEAT F,G,H,I,J,K ANOTHER 2 TIMES

                                   (L)
G|----------------------------------|----------------------------------|
D|----------------------------------|----------------------------------|
A|----------------------------------|----------------------------------|
E|-0-0-0-0-0-0-0-0--3-3-3-3-3-3-3-3-|-0-0-0-0-0-0-0-0--3-3-3-3-3-3-3-3-|


                                   (M)
G|----------------------------------|----------------------------------|
D|----------------------------------|----------------------------------|
A|----------------------------------|----------------------------------|
E|-0-0-0-0-0-0-0-0--3-3-3-3-3-3-3-3-|-0-0-0-0-0-0-0-0--3-3-3-3-3-3-3-3-|


                                   (N)
G|----------------------------------|----------------------------------|
D|----------------------------------|----------------------------------|
A|----------------------------------|----------------------------------|
E|-0-0-0-0-2-2-2-2--3-3-3-3-5-5-5-5-|-0-0-0-0-2-2-2-2--3-3-3-3-5-5-5-5-|


                                   (O)
G|----------------------------------|----------------------------------|
D|----------------------------------|----------------------------------|
A|----------------------------------|----------------------------------|
E|-0-0-0-0-2-2-2-2--3-3-3-3-5-5-5-5-|-0-0-0-0-2-2-2-2--3-3-3-3-5-5-5-5-|


                                   (P)
G|----------------------------------|
D|----------------------------------|
A|----------------------------------|
E|-0-0-0-0-2-2-2-2--3-3-3-3-5-5-5-5-|


                                   (Q)
G|----------------------------------|----------------------------------|
D|-----2--5--4--2-------------------|--------2--0----------------------|
A|------------------3--5--3--2------|-----O--------3---0--2--3--5------|
E|----------------------------------|----------------------------------|


                                   (R)
G|----------------------------------|----------------------------------|
D|-----2--5--4--2-------------------|--------2--0----------------------|
A|------------------3--5--3--2------|-----0--------3---0--2--3--5------|
E|----------------------------------|----------------------------------|


                                   (S)
G|----------------------------------|----------------------------------|
D|-----2--5--4--2-------------------|--------2--0----------------------|
A|------------------3--5--3--2------|-----0--------3---0--2--3--5------|
E|----------------------------------|----------------------------------|


                                   (T)
G|----------------------------------|----------------------------------|
D|-----2--5--4--2-------------------|--------2--0----------------------|
A|------------------3--5--3--2------|-----0--------3---0--2--3--5------|
E|----------------------------------|----------------------------------|


                                   (U)
G|----------------------------------|----------------------------------|
D|-----2--5--4--2-------------------|--------2--0----------------------|
A|------------------3--5--3--2------|-----0--------3---0--2--3--5------|
E|----------------------------------|----------------------------------|


                                   (V)
G|----------------2--4--5--7--9--12-|-11--9--7--5--4--2--0-------------|
D|------2--4--5---------------------|----------------------------------|
A|----------------------------------|----------------------------------|
E|----------------------------------|----------------------------------|

 REPEAT V UNTIL THE SONG FADES OUT




Back To Contents

Back To Main Stranglers Index