Black And White Black And White

Tank



 SONG:TANK
 ARTIST: THE STRANGLERS
 ALBUM: BLACK AND WHITE
 BASSIST: JEAN JACQUES BURNEL
 TAB BY [email protected]

 
                                   (A)
G|----------------------------------|----------------------------------|
D|----------------------------------|---------7---5--------------------|
A|--7---5---7---5---7---5---7---5---|-7---5----------------5---6-------|
E|----------------------------------|------------------7---------------|


                                   (B)
G|----------------------------------|----------------------------------|
D|----------------------------------|----------------------------------|
A|--7---5---7---5---7---5---7---5---|-7---5----------------------------|
E|----------------------------------|---------7---5----0---3---0-------|


                                   (C)
G|----------------------------------|----------------------------------|
D|----------------------------------|----------------------------------|
A|--7---7---7---7-------------------|--5---5---5-----------------------|
E|-------------------7---7---7---7--|--------------5----0---3---0------|


                                   (D)
G|----------------------------------|----------------------------------|
D|----------------------------------|----------------------------------|
A|--7---7---7---7-------------------|--5---5---5-----------------------|
E|-------------------7---7---7---7--|--------------5----0---3---0------|


                                   (E)
G|----------------------------------|----------------------------------|
D|----------------------------------|----------------------------------|
A|----------7---7-------------------|--5---5---5-----------------------|
E|--0---0------------7---7---7---7--|--------------5----0---3---0------|


                                   (F)
G|----------------------------------|----------------------------------|
D|----------------------------------|----------------------------------|
A|----------7---7-------------------|--5---5---5-----------------------|
E|--0---0------------7---7---7---7--|--------------5----0---3---0------|


                                   (G)
G|----------------------------------|----------------------------------|
D|----------------------------------|----------------------------------|
A|----------------------------------|----------------------------------|
E|-5---5---5---0---5---0---5---0----|--3---3---3---0---3---0---3---0---|


                                   (H)
G|----------------------------------|----------------------------------|
D|----------------------------------|----------------------------------|
A|----------------------------------|----------------------------------|
E|--3---3---3---0---3---0---3---0---|-5---5---5---0---5---0---5---0----|


                                   (I)
G|----------------------------------|----------------------------------|
D|----------------------------------|----------------------------------|
A|----------------------------------|----------------------------------|
E|--3---3---3---0---3---0---3---0---|--3---3---3---0---3---0---3---0---|


                                   (J)
G|----------------------------------|----------------------------------|
D|----------------------------------|----------------------------------|
A|----------------------------------|----------------------------------|
E|-5---5---5---0---5---0---5---0----|--3---3---3---0---3---0---3---0---|


                                   (K)
G|----------------------------------|----------------------------------|
D|----------------------------------|----------------------------------|
A|----------------------------------|----------------------------------|
E|--3---3---3---0---3---0---3---0---|-5---5---5---0---5---0---5---0----|


                                   (L)
G|----------------------------------|
D|----------------------------------|
A|----------------------------------|
E|--3---3---3---0---3---0---3---0---|


                                   (M)
G|------------------9---------------|----------------------------------|
D|------5---7---9-------9---7---5---|----------7---5-------------------|
A|--7-------------------------------|--7---5----------------5---6------|
E|----------------------------------|-------------------7--------------|
			

                                   (N)
G|----------------------------------|----------------------------------|
D|----------------------------------|---------7---5--------------------|
A|--7---5---7---5---7---5---7---5---|-7---5----------------5---6-------|
E|----------------------------------|------------------7---------------|


                                   (O)
G|----------------------------------|----------------------------------|
D|----------------------------------|----------------------------------|
A|--7---7---7---7-------------------|--5---5---5-----------------------|
E|-------------------7---7---7---7--|--------------5----0---3---0------|


                                   (P)
G|----------------------------------|----------------------------------|
D|----------------------------------|----------------------------------|
A|----------7---7-------------------|--5---5---5-----------------------|
E|--0---0------------7---7---7---7--|--------------5----0---3---0------|


                                   (Q)
G|----------------------------------|----------------------------------|
D|----------------------------------|----------------------------------|
A|----------------------------------|----------------------------------|
E|-5---5---5---0---5---0---5---0----|--3---3---3---0---3---0---3---0---|


                                   (R)
G|----------------------------------|----------------------------------|
D|----------------------------------|----------------------------------|
A|----------------------------------|----------------------------------|
E|--3---3---3---0---3---0---3---0---|-5---5---5---0---5---0---5---0----|


                                   (S)
G|----------------------------------|----------------------------------|
D|----------------------------------|----------------------------------|
A|----------------------------------|----------------------------------|
E|--3---3---3---0---3---0---3---0---|--3---3---3---0---3---0---3---0---|


                                   (T)
G|----------------------------------|----------------------------------|
D|----------------------------------|----------------------------------|
A|----------------------------------|----------------------------------|
E|-5---5---5---0---5---0---5---0----|--3---3---3---0---3---0---3---0---|


                                   (U)
G|----------------------------------|----------------------------------|
D|----------------------------------|----------------------------------|
A|----------------------------------|----------------------------------|
E|--3---3---3---0---3---0---3---0---|-5---5---5---0---5---0---5---0----|


                                   (V)
G|----------------------------------|
D|----------------------------------|
A|----------------------------------|
E|--3---3---3---0---3---0---3---0---|


                                   (W)
G|------------------9---------------|----------------------------------|
D|------5---7---9-------9---7---5---|----------7---5-------------------|
A|--7-------------------------------|--7---5------------5---7---5------|
E|----------------------------------|----------------------------------|


                                   (X)
G|------------------5---------------|----------------------------------|
D|------1---3---5-------5---3---1---|----------3---1-------------------|
A|--3-------------------------------|--3---1-----------1---3---1-------|
E|----------------------------------|----------------------------------|

 REPEAT X ANOTHER 5 TIMES

                                   (Y)
G|----------------------------------|----------------------------------|
D|----------------------------------|----------------------------------|
A|----------------------------------|----------------------------------|
E|--0---0---0---0---0---0---0---0---|--12-S\--9--0---12-S\--9--0--12S\-|


                                   (Z)
G|----------------------------------|----------------------------------|
D|----------------------------------|----------------------------------|
A|----------------------------------|----------------------------------|
E|--3---3---3---3---3---3---3---3---|-15-S\--12--0---15-S\--12--0--15-S\-|


                                   (AA)
G|------------------7---------------|------------------7---------------|
D|------3---5---7-------7---5---3---|------3---5---7-------7---5---3---|
A|--5-------------------------------|--5-------------------------------|
E|----------------------------------|----------------------------------|


                                   (AB)
G|------------------5---------------|------------------5---------------|
D|------1---3---5-------5---3---1---|------1---3---5-------5---3---1---|
A|--3-------------------------------|--3-------------------------------|
E|----------------------------------|----------------------------------|


                                   (AC)
G|------------------9---------------|----------------------------------|
D|------5---7---9-------9---7---5---|----------7---5-------------------|
A|--7-------------------------------|--7---5----------------5---6------|
E|----------------------------------|-------------------7--------------|
			

                                   (AD)
G|----------------------------------|----------------------------------|
D|----------------------------------|---------7---5--------------------|
A|--7---5---7---5---7---5---7---5---|-7---5----------------5---6-------|
E|----------------------------------|------------------7---------------|


                                   (AE)
G|----------------------------------|----------------------------------|
D|----------------------------------|----------------------------------|
A|--7---7---7---7-------------------|--5---5---5-----------------------|
E|-------------------7---7---7---7--|--------------5----0---3---0------|


                                   (AF)
G|----------------------------------|----------------------------------|
D|----------------------------------|----------------------------------|
A|----------7---7-------------------|--5---5---5-----------------------|
E|--0---0------------7---7---7---7--|--------------5----0---3---0------|


                                   (AG)
G|----------------------------------|----------------------------------|
D|----------------------------------|----------------------------------|
A|----------------------------------|----------------------------------|
E|-5---5---5---0---5---0---5---0----|--3---3---3---0---3---0---3---0---|


                                   (AH)
G|----------------------------------|----------------------------------|
D|----------------------------------|----------------------------------|
A|----------------------------------|----------------------------------|
E|--3---3---3---0---3---0---3---0---|-5---5---5---0---5---0---5---0----|


                                   (AI)
G|----------------------------------|----------------------------------|
D|----------------------------------|----------------------------------|
A|----------------------------------|----------------------------------|
E|--3---3---3---0---3---0---3---0---|--3---3---3---0---3---0---3---0---|


                                   (AJ)
G|----------------------------------|----------------------------------|
D|----------------------------------|----------------------------------|
A|----------------------------------|----------------------------------|
E|-5---5---5---0---5---0---5---0----|--3---3---3---0---3---0---3---0---|


                                   (AK)
G|----------------------------------|----------------------------------|
D|----------------------------------|----------------------------------|
A|----------------------------------|----------------------------------|
E|--3---3---3---0---3---0---3---0---|-5---5---5---0---5---0---5---0----|


                                   (AL)
G|----------------------------------|
D|----------------------------------|
A|----------------------------------|
E|--3---3---3---0---3---0---3---0---|


                                   (AM)
G|----------------------------------|----------------------------------|
D|----------------------------------|----------------------------------|
A|--7---5---7---5---7---5---7---5---|-7---5----------------------------|
E|----------------------------------|---------7---5----0---3---0-------|


                                   (AN)
G|----------------------------------|----------------------------------|
D|----------------------------------|----------------------------------|
A|----------7---7-------------------|--5---5---5-----------------------|
E|--0---0------------7---7---7---7--|--------------5----0---3---0------|


                                   (AO)
G|----------------------------------|----------------------------------|
D|----------------------------------|---------7---5--------------------|
A|--7---5---7---5---7---5---7---5---|-7---5----------------5---6-------|
E|----------------------------------|------------------7---------------|


                                   (AP)
G|------------------7---9---12---11-|--9---7----------------------------|
D|------5---7---9-------------------|----------9---7--------------------|
A|--7-------------------------------|-----------------------5---6-------|
E|----------------------------------|-------------------7---------------|


                                   (AQ)
G|----------------------------------|----------------------------------|
D|----------------------------------|----------------------------------|
A|--7---5---7---5---7---5---7---5---|-7---5----------------------------|
E|----------------------------------|---------7---5----0---3---0-------|


                                   (AR)
G|----------------------------------|----------------------------------|
D|----------------------------------|----------------------------------|
A|--7---5---7---5---7---5---7---5---|-7---5----------------------------|
E|----------------------------------|---------7---5----0---3---0-------|


                                   (AS)
G|------------------9---------------|----------------------------------|
D|------5---7---9-------9---7---5---|----------7---5-------------------|
A|--7-------------------------------|--7---5----------------5---6------|
E|----------------------------------|-------------------7--------------|


                                   (AT)
G|------------------9---------------|----------------------------------|
D|------5---7---9-------9---7---5---|----------7---5-------------------|
A|--7-------------------------------|--7---5----------------5---6------|
E|----------------------------------|-------------------7--------------|


                                   (AU)
G|------------------9---------------|----------------------------------|
D|------5---7---9-------9---7---5---|----------7---5-------------------|
A|--7-------------------------------|--7---5----------------5---6------|
E|----------------------------------|-------------------7--------------|


                                   (AV)
G|------------------9--------9------|---9--------9-------9-------9-----|
D|------5---7---9-------9--------9--|-------9--------9-------9---------|
A|--7-------------------------------|----------------------------------|
E|----------------------------------|----------------------------------|
                         {AT THIS POINT START SLOWING DOWN THEN END ON E}

Back To Contents

Back To Main Stranglers Index