Tomorrow Was Hereafter


 

 SONG: TOMORROW WAS HEREAFTER
 ARTIST: THE STRANGLERS
 ALBUM: HITS AND HEROES (CD: 2)
 BASSIST: JEAN JACQUES BURNEL
 TAB BY [email protected]

 
                                   (A)
G|----------------------------------|----------------------------------|
D|---7---------5--------------------|----------------------------------|
A|-----------------------7----------|--5---------3---------------------|
E|----------------------------------|-------------------5---5---3---5--|


                                   (B)
G|----------5---6---7---7-----------|----------------------------------|
D|--7---7---------------------------|----------5---6---7---7----5---6--|
A|----------------------------5---6-|--7---7---------------------------|
E|----------------------------------|----------------------------------|


                                   (C)
G|----------5---6---7---7-----------|----------------------------------|
D|--7---7---------------------------|----------5---6---7---7----5---6--|
A|----------------------------5---6-|--7---7---------------------------|
E|----------------------------------|----------------------------------|



                                   (D)
G|----------5---6---7---7-----------|----------------------------------|
D|--7---7---------------------------|----------5---6---7---7----5---6--|
A|----------------------------5---6-|--7---7---------------------------|
E|----------------------------------|----------------------------------|



                                   (E)
G|----------5---6---7---7-----------|----------------------------------|
D|--7---7---------------------------|----------5---6-------------------|
A|----------------------------5---6-|--7---7---------------------------|
E|----------------------------------|----------------------------------|



                                   (F)
G|----------------------------------|----------------------------------|
D|---7---------5--------------------|----------------------------------|
A|-----------------------7----------|--5---------3---------------------|
E|----------------------------------|-------------------5---5---3---5--|


                                   (G)
G|----------------------------------|----------------------------------|
D|----------------------------------|----------------------------------|
A|------3---3----5---5----3---3-----|----------3---3----5---5----3---3-|
E|--5-------------------------------|--5---5---------------------------|


                                   (H)
G|----------------------------------|----------------------------------|
D|----------------------------------|----------------------------------|
A|----------3---3----5---5----3---3-|----------3---3-------------------|
E|--5---5---------------------------|--5---5------------3---3---3---3--|


                                   (I)
G|----------------------------------|----------------------------------|
D|----------------------------------|----------------------------------|
A|----------------------------------|----------------------------------|
E|--0---3---0---3---0---3---0---3---|--0---3---0---3---0---3---0---3---|


                                   (J)
G|----------5---6---7---7-----------|----------------------------------|
D|--7---7---------------------------|----------5---6---7---7----5---6--|
A|----------------------------5---6-|--7---7---------------------------|
E|----------------------------------|----------------------------------|



                                   (K)
G|----------5---6---7---7-----------|----------------------------------|
D|--7---7---------------------------|----------5---6---7---7----5---6--|
A|----------------------------5---6-|--7---7---------------------------|
E|----------------------------------|----------------------------------|


                                   (L)
G|----------5---6---7---7-----------|----------------------------------|
D|--7---7---------------------------|----------5---6---7---7----5---6--|
A|----------------------------5---6-|--7---7---------------------------|
E|----------------------------------|----------------------------------|


                                   (M)
G|----------5---6---7---7-----------|----------------------------------|
D|--7---7---------------------------|----------5---6-------------------|
A|----------------------------5---6-|--7---7---------------------------|
E|----------------------------------|----------------------------------|


                                   (N)
G|----------------------------------|----------------------------------|
D|---7---------5--------------------|----------------------------------|
A|-----------------------7----------|--5---------3---------------------|
E|----------------------------------|-------------------5---5---3---5--|


                                   (O)
G|----------------------------------|----------------------------------|
D|----------------------------------|----------------------------------|
A|------3---3----5---5----3---3-----|----------3---3----5---5----3---3-|
E|--5-------------------------------|--5---5---------------------------|


                                   (P)
G|----------------------------------|----------------------------------|
D|----------------------------------|----------------------------------|
A|----------3---3----5---5----3---3-|----------3---3-------------------|
E|--5---5---------------------------|--5---5------------3---3---3---3--|


                                   (Q)
G|----------------------------------|----------------------------------|
D|----------------------------------|----------------------------------|
A|----------------------------------|----------------------------------|
E|--0---3---0---3---0---3---0---3---|--0---3---0---3---0---3---0---3---|


                                   (R)
G|----------5---6---7---7-----------|----------------------------------|
D|--7---7---------------------------|----------5---6---7---7----5---6--|
A|----------------------------5---6-|--7---7---------------------------|
E|----------------------------------|----------------------------------|


                                   (S)
G|----------5---6---7---7-----------|----------------------------------|
D|--7---7---------------------------|----------5---6-------------------|
A|----------------------------5---6-|--7---7---------------------------|
E|----------------------------------|----------------------------------|


                                   (T)
G|----------------------------------|----------------------------------|
D|---7---------5--------------------|----------------------------------|
A|-----------------------7----------|--5---------3---------------------|
E|----------------------------------|-------------------5---5---3---5--|


                                   (U)
G|----------------------------------|----------------------------------|
D|----------------------------------|----------------------------------|
A|------3---3----5---5----3---3-----|----------3---3----5---5----3---3-|
E|--5-------------------------------|--5---5---------------------------|


                                   (V)
G|----------------------------------|----------------------------------|
D|----------------------------------|----------------------------------|
A|----------3---3----5---5----3---3-|----------3---3-------------------|
E|--5---5---------------------------|--5---5------------3---3---3---3--|


                                   (W)
G|----------------------------------|----------------------------------|
D|----------------------------------|----------------------------------|
A|----------------------------------|----------------------------------|
E|--0---3---0---3---0---3---0---3---|--0---3---0---3---0---3---0---3---|


                                   (X)
G|------9-------9-------9-------9---|------9-------9-------9-------9---|
D|----------------------------------|----------------------------------|
A|--7-------7-------7-------7-------|--7-------7-------7-------7-------|
E|----------------------------------|----------------------------------|

 REPEAT X UNTIL......

                                   (Y)
G|--9---7---------------------------|----------------------------7---8-|
D|----------10---9---7--------------|---------------7---9---10---------|
A|-----------------------10---9---7-|--7---9---10----------------------|
E|----------------------------------|----------------------------------|


                                   (Z)
G|--9---7---------------------------|----------------------------------|
D|----------10---9---7--------------|----------------------------------|
A|-----------------------10---9---7-|--7---5---3---2-------------------|
E|----------------------------------|------------------5---3---2---0---|

 REPEAT X UNTIL.....

                                   (AA)
G|----------------------------------|----------------------------------|
D|----------------------------------|----------------------------------|
A|--7---5---3---2----7---5---3---2--|--7---5---3---2----7---5---3---2--|
E|----------------------------------|----------------------------------|


                                   (AB)
G|----------------------------------|----------------------------------|
D|----------------------------------|----------------------------------|
A|--7---5---3---2----7---5---3---2--|--7---5---3---2----7---5---3---2--|
E|----------------------------------|----------------------------------|


                                   (AC)
G|----------------------------------|----------------------------------|
D|----------------------------------|----------------------------------|
A|--7---5---3---2----7---5---3---2--|--3---2---0--------2---0----------|
E|----------------------------------|--------------3------------3---2--|


                                   (AD)
G|----------------------------------|----------------------------------|
D|----------------------------------|----------------------------------|
A|--7---7---7---7----7---7---7---7--|--5---5---5---5----5---5---5---5--|
E|----------------------------------|----------------------------------|


                                   (AE)
G|----------------------------------|----------------------------------|
D|----------------------------------|----------------------------------|
A|--3---3---3---3----3---3---3---3--|--2---2---2---2----2---2---2---2--|
E|----------------------------------|----------------------------------|


                                   (AF)
G|----------------------------------|----------------------------------|
D|----------------------------------|----------------------------------|
A|----------------------------------|----------------------------------|
E|--0---3---0---3---0---3---0---3---|--0---3---0---3---0---3---0---3---|

 REPEAT AF UNTIL.....

                                   (AG)
G|----------------------------------|----------------------------------|
D|----------------------------------|----------------------------------|
A|--7--7----5--5----3--3----2--2----|--0--0----------------------------|
E|----------------------------------|----------3--3----2--2----0--0----|


                                   (AH)
G|----------------------------------|----------------------------------|
D|----------------------------------|--------------------------5---6---|
A|--7--7----5--5----3--3----2--2----|--0--0----------------------------|
E|----------------------------------|----------3--3----2--2------------|


                                   (AI)
G|----------5---6---7---7-----------|----------------------------------|
D|--7---7---------------------------|----------5---6---7---7----5---6--|
A|----------------------------5---6-|--7---7---------------------------|
E|----------------------------------|----------------------------------|


                                   (AJ)
G|----------5---6---7---7-----------|----------------------------------|
D|--7---7---------------------------|----------5---6-------------------|
A|----------------------------5---6-|--7---7---------------------------|
E|----------------------------------|----------------------------------|


                                   (AK)
G|----------------------------------|----------------------------------|
D|---7---------5--------------------|----------------------------------|
A|-----------------------7----------|--5---------3---------------------|
E|----------------------------------|-------------------5---5---3---5--|
			

                                   (AL)
G|----------5---6---7---7-----------|----------------------------------|
D|--7---7---------------------------|----------5---6---7---7----5---6--|
A|----------------------------5---6-|--7---7---------------------------|
E|----------------------------------|----------------------------------|


                                   (AM)
G|----------5---6---7---7-----------|----------------------------------|
D|--7---7---------------------------|----------5---6---7---7----5---6--|
A|----------------------------5---6-|--7---7---------------------------|
E|----------------------------------|----------------------------------|



                                   (AN)
G|----------5---6---7---7-----------|----------------------------------|
D|--7---7---------------------------|----------5---6---7---7----5---6--|
A|----------------------------5---6-|--7---7---------------------------|
E|----------------------------------|----------------------------------|



                                   (AO)
G|----------5---6---7---7-----------|----------------------------------|
D|--7---7---------------------------|----------5---6-------------------|
A|----------------------------5---6-|--7---7---------------------------|
E|----------------------------------|----------------------------------|


                                   (AP)
G|----------------------------------|----------------------------------|
D|---7---------5--------------------|----------------------------------|
A|-----------------------7----------|--5---------3---------------------|
E|----------------------------------|-------------------5---5---3---5--|


                                   (AQ)
G|----------------------------------|----------------------------------|
D|----------------------------------|----------------------------------|
A|------3---3----5---5----3---3-----|----------3---3----5---5----3---3-|
E|--5-------------------------------|--5---5---------------------------|


                                   (AR)
G|----------------------------------|----------------------------------|
D|----------------------------------|----------------------------------|
A|----------3---3----5---5----3---3-|----------3---3-------------------|
E|--5---5---------------------------|--5---5------------3---3---3---3--|


                                   (AS)
G|----------------------------------|----------------------------------|
D|----------------------------------|----------------------------------|
A|----------------------------------|----------------------------------|
E|--0---3---0---3---0---3---0---3---|--0---3---0---3---0---3---0---3---|


                                   (AT)
G|----------5---6---7---7-----------|----------------------------------|
D|--7---7---------------------------|----------5---6---7---7----5---6--|
A|----------------------------5---6-|--7---7---------------------------|
E|----------------------------------|----------------------------------|


                                   (AU)
G|----------5---6---7---7-----------|----------------------------------|
D|--7---7---------------------------|----------5---6-------------------|
A|----------------------------5---6-|--7---7---------------------------|
E|----------------------------------|----------------------------------|


                                   (AV)
G|----------------------------------|----------------------------------|
D|---7---------5--------------------|----------------------------------|
A|-----------------------7----------|--5---------3---------------------|
E|----------------------------------|-------------------5---5---3---5--|

Back To Contents

Back To Main Stranglers Index