Vietnamerica


 SONG: VIETNAMERICA 
 ARTIST: THE STRANGLERS 
 ALBUM: OFF THE BEATEN TRACK
 BASSIST: JEAN JACQUES BURNEL
 TAB BY [email protected]

 
 
 KEYBOARDS AND DRUMS INTRO
                                   (A)         
G|----------------------------------|----------------------------------|
D|----------------------------------|----------------------------------|
A|------------------------------5---|----------------------------------|
E|----3---3-----3---1-------1-------|-----3---3---------3---3----------|
			

                                   (B)
G|----------------------------------|----------------------------------|
D|----------------------------------|----------------------------------|
A|------------------------------5---|----------------------------------|
E|----3---3-----3---1-------1-------|-----3---3---------3---3----------|


                                   (C)
G|----------------------------------|----------------------------------|
D|----------------------------------|----------------------------------|
A|-----5----3----1----0-------------|----5----3----1----0--------------|
E|-------------------------1--------|-------------------------1--------|


                                   (D)
G|----------------------------------|----------------------------------|
D|----------------------------------|----------------------------------|
A|-----3---3-------3---3---1---0----|----------------------------------|
E|----------------------------------|-----3---3----------3---3---------|


 CHORUS                            (E)
G|----------------------------------|----------------------------------|
D|----------------------------------|----------------------------------|
A|---------5----5--3----3-----------|---------5----5--3--3--3----------|
E|-5----5------------------1--1--1--|-5----5-------------------1--1--1-|


                                   (F)
G|----------------------------------|----------------------------------|
D|----------------------------------|----------------------------------|
A|---------5--5--5---3--3--3--------|----------------------------------|
E|-5---5---------------------1--1--1|-----3---3---------3---3----------|


                                   (G)
G|----------------------------------|----------------------------------|
D|----------------------------------|----------------------------------|
A|-----7---7---------5---5----------|-----7---7---------5---5----------|
E|----------------------------------|----------------------------------|


                                   (H)
G|----------------------------------|----------------------------------|
D|----------------------------------|----------------------------------|
A|------------------------------5---|----------------------------------|
E|----3---3-----3---1-------1-------|-----3---3---------3---3----------|


                                   (I)
G|----------------------------------|----------------------------------|
D|----------------------------------|----------------------------------|
A|------------------------------5---|----------------------------------|
E|----3---3-----3---1-------1-------|-----3---3---------3---3----------|


                                   (J)
G|----------------------------------|----------------------------------|
D|----------------------------------|----------------------------------|
A|-----5----3----1----0-------------|-----5----3----1----0-------------|
E|-------------------------1--------|-------------------------1--------|


                                   (K)
G|----------------------------------|----------------------------------|
D|----------------------------------|----------------------------------|
A|-----3---3-------3---3---1---0----|----------------------------------|
E|----------------------------------|-----3---3---------3---3----------|


 CHORUS                            (L)
G|----------------------------------|----------------------------------|
D|----------------------------------|----------------------------------|
A|---------5----5--3----3-----------|---------5----5--3--3--3----------|
E|-5----5------------------1--1--1--|-5----5-------------------1--1--1-|


                                   (M)
G|----------------------------------|----------------------------------|
D|----------------------------------|----------------------------------|
A|---------5--5--5---3--3--3--------|----------------------------------|
E|-5----5--------------------1--1--1|-----3---3---------3---3----------|


                                   (N)
G|----------------------------------|----------------------------------|
D|----------------------------------|----------------------------------|
A|-----7---7---------5---5----------|-----7---7---------5---5----------|
E|----------------------------------|----------------------------------|


                                   (O)
G|----------------------------------|----------------------------------|
D|----------------------------------|----------------------------------|
A|------------------------------5---|----------------------------------|
E|----3---3-----3---1-------1-------|-----3---3---------3---3----------|


                                   (P)
G|----------------------------------|----------------------------------|
D|----------------------------------|----------------------------------|
A|------------------------------5---|----------------------------------|
E|----3---3-----3---1-------1-------|-----3---3---------3---3----------|


                                   (Q)
G|----------------------------------|----------------------------------|
D|----------------------------------|----------------------------------|
A|-----5----3----1----0-------------|-----5----3----1----0-------------|
E|-------------------------1--------|-------------------------1--------|


                                   (R)
G|----------------------------------|----------------------------------|
D|----------------------------------|----------------------------------|
A|-----3---3-------3---3---1---0----|----------------------------------|
E|----------------------------------|-----3---3---------3---3----------|


 CHORUS                            (S)
G|----------------------------------|----------------------------------|
D|----------------------------------|----------------------------------|
A|---------5----5--3----3-----------|---------5----5--3--3--3----------|
E|-5----5------------------1--1--1--|-5----5-------------------1--1--1-|


                                   (T)
G|----------------------------------|----------------------------------|
D|----------------------------------|----------------------------------|
A|---------5--5--5---3--3--3--------|----------------------------------|
E|-5----5--------------------1--1--1|-----3---3---------3---3----------|


                                   (U)
G|----------------------------------|----------------------------------|
D|----------------------------------|----------------------------------|
A|-----7---7---------5---5----------|-----7---7---------5---3---2------|
E|----------------------------------|----------------------------------|

 REPEAT U UNTIL THE SONG FADES OUT







Back To Contents

Back To Main Stranglers Index