In The Night In The Night

Wet Afternoon




 SONG:WET AFTERNOON
 ARTIST: THE STRANGLERS
 ALBUM: IN THE NIGHT
 BASSIST: JEAN JACQUES BURNEL
 TAB BY [email protected]

 *= LET NOTE RING


                                   (A)
G|----------------------------------|----------------------------------|
D|----------------------------------|--------------------7*------------|
A|-5--7--5--7--5--3-----------------|-5--7--5--7--5--3-----------------|
E|------------------5-5-5-0-5-5-5-0-|----------------------------------|
			

                                   (B)
G|----------------------------------|----------------------------------|
D|-------------0--2--2--0-----------|-------------0--2--2--0-----------|
A|----0--0--3--------------3--------|----0--0--3--------------3--------|
E|----------------------------------|----------------------------------|


                                   (C)
G|----------------------------------|----------------------------------|
D|-------------0--2--2--0-----------|-------------0--2--2--0-----------|
A|----0--0--3--------------3--------|----0--0--3--------------3--------|
E|----------------------------------|----------------------------------|


                                   (D)
G|----------------------------------|----------------------------------|
D|-------------0--2--2--0-----------|-------------0--2--2--0-----------|
A|----0--0--3--------------3--------|----0--0--3--------------3--------|
E|----------------------------------|----------------------------------|


                                   (E)
G|----------------------------------|----------------------------------|
D|-------------0--2--2--0-----------|-------------0--2--2--0-----------|
A|----0--0--3--------------3--------|----0--0--3--------------3--------|
E|----------------------------------|----------------------------------|


                                   (F)
G|----------------------------------|----------------------------------|
D|-------------0--2--2--0-----------|-------------0--2--2--0-----------|
A|----0--0--3--------------3--------|----0--0--3--------------3--------|
E|----------------------------------|----------------------------------|


                                   (G)
G|----------------------------------|----------------------------------|
D|-------------0--2--2--0-----------|-------------0--2--2--0-----------|
A|----0--0--3--------------3--------|----0--0--3--------------3--------|
E|----------------------------------|----------------------------------|


                                   (H)
G|----------------------------------|----------------------------------|
D|----------------------------------|----------------------------------|
A|-------------0--2--2--0-----------|-------------0--2--2--0-----------|
E|----0--0--3--------------3--------|----0--0--3--------------3--------|


                                   (I)
G|----------------------------------|----------------------------------|
D|----------------------------------|----------------------------------|
A|-------------0--2--2--0-----------|-------------0--2--2--0-----------|
E|----0--0--3--------------3--------|----0--0--3--------------3--------|


                                   (J)
G|----------------------------------|----------------------------------|
D|----------------------------------|----------------------------------|
A|-------------0--2--2--0-----------|-------------0--2--2--0-----------|
E|----0--0--3--------------3--------|----0--0--3--------------3--------|


                                   (K)
G|----------------------------------|----------------------------------|
D|----------------------------------|----------------------------------|
A|-------------0--2--2--0-----------|-------------0--2--2--0-----------|
E|----0--0--3--------------3--------|----0--0--3--------------3--------|


                                   (L)
G|----------------------------------|----------------------------------|
D|-------------0--2--2--0-----------|-------------0--2--2--0-----------|
A|----0--0--3--------------3--------|----0--0--3--------------3--------|
E|----------------------------------|----------------------------------|


                                   (M)
G|----------------------------------|----------------------------------|
D|-------------0--2--2--0-----------|-------------0--2--2--0-----------|
A|----0--0--3--------------3--------|----0--0--3--------------3--------|
E|----------------------------------|----------------------------------|
			

                                   (N)
G|----------------------------------|----------------------------------|
D|-------------0--2--2--0-----------|-------------0--2--2--0-----------|
A|----0--0--3--------------3--------|----0--0--3--------------3--------|
E|----------------------------------|----------------------------------|


                                   (O)
G|----------------------------------|----------------------------------|
D|-------------0--2--2--0-----------|-------------0--2--2--0-----------|
A|----0--0--3--------------3--------|----0--0--3--------------3--------|
E|----------------------------------|----------------------------------|


                                   (P)
G|----------------------------------|----------------------------------|
D|----------------------------------|----------------------------------|
A|-------------0--2--2--0-----------|-------------0--2--2--0-----------|
E|----0--0--3--------------3--------|----0--0--3--------------3--------|


                                   (Q)
G|----------------------------------|----------------------------------|
D|----------------------------------|----------------------------------|
A|-------------0--2--2--0-----------|-------------0--2--2--0-----------|
E|----0--0--3--------------3--------|----0--0--3--------------3--------|


                                   (R)
G|----------------------------------|----------------------------------|
D|----------------------------------|----------------------------------|
A|-------------0--2--2--0-----------|-------------0--2--2--0-----------|
E|----0--0--3--------------3--------|----0--0--3--------------3--------|


                                   (S)
G|----------------------------------|----------------------------------|
D|----------------------------------|----------------------------------|
A|-7----6----5----4----3----2---1---|----------------------------------|
E|----------------------------------|----5----5----5----0--------------|


 CHORUS                            (T)
G|----------------------------------|----------------------------------|
D|----------------------------------|----------------------------------|
A|-5---5---5---0---5---5---5---0----|----------------------------------|
E|----------------------------------|-5---5---5---0---5---5---5---0----|


                                   (U)
G|----------------------------------|----------------------------------|
D|----------------------------------|----------------------------------|
A|-5---5---5---0---5---5---5---0----|----------------------------------|
E|----------------------------------|-5---5---5---0---5---5---5---0----|


                                   (V)
G|----------------------------------|----------------------------------|
D|----------------------------------|----------------------------------|
A|-5---5---5---0---5---5---5---0----|----------------------------------|
E|----------------------------------|-5---5---5---0---5---5---5---0----|


                                   (W)
G|----------------------------------|----------------------------------|
D|----------------------------------|--------------------7*------------|
A|-5--7--5--7--5--3-----------------|-5--7--5--7--5--3-----------------|
E|------------------5-5-5-0-5-5-5-0-|----------------------------------|

 REPEAT B 6 TIMES

 REPEAT R, S, T, U, V & W

 REPEAT B 8 TIMES

 REPEAT R & S

                                   (X)

G|----------------------------------|----------------------------------|
D|----------------------------------|----------------------------------|
A|-5---5---5---0---5---5---5---0----|----------------------------------|
E|----------------------------------|-5---5---5---0---5---5---5---0----|


                                   (U)
G|----------------------------------|----------------------------------|
D|----------------------------------|----------------------------------|
A|-5---5---5---0---5---5---5---0----|----------------------------------|
E|----------------------------------|-5---5---5---0---5---5---5---0----|


                                   (V)
G|----------------------------------|----------------------------------|
D|----------------------------------|----------------------------------|
A|-5---5---5---0---5---5---5---0----|----------------------------------|
E|----------------------------------|-5---5---5---0---5---5---5---0----|


                                   (W)
G|----------------------------------|
D|----------------------------------|
A|-5--7--5--7--5--3-----------------|
E|------------------5-5-5-0-5-5-5-0-|


                                   (AA)
G|----------------------------------|----------------------------------|
D|----------------------------------|----------------------------------|
A|-5---5---5---0---5---5---5---0----|----------------------------------|
E|----------------------------------|-5---5---5---0---5---5---5---0----|


                                   (AB)
G|----------------------------------|----------------------------------|
D|----------------------------------|----------------------------------|
A|-5---5---5---0---5---5---5---0----|----------------------------------|
E|----------------------------------|-5---5---5---0---5---5---5---0----|


                                   (AD)
G|----------------------------------|----------------------------------|
D|----------------------------------|----------------------------------|
A|-5---5---5---0---5---5---5---0----|----------------------------------|
E|----------------------------------|-5---5---5---0---5---5---5---0----|


                                   (AE)
G|----------------------------------|----------------------------------|
D|----------------------------------|----------------------------------|
A|-5--7--5--7--5--3-----------------|-5--7--5--7--5--3-----------------|
E|------------------5-5-5-0-5-5-5-0-|------------------5-5-5-0-5-5-5-0-|


                                   (AF)
G|----------------------------------|----------------------------------|
D|----------------------------------|--------------------7-------------|
A|-5--7--5--7--5--3-----------------|-5--7--5--7--5--3-----------------|
E|------------------5-5-5-0-5-5-5-0-|----------------------------------|

Back To Contents

Back To Main Stranglers Index