No More Heroes No More Heroes

I Feel Like A Wog



ARTIST: THE STRANGLERS
SONG: I FEEL LIKE A WOG
ALBUM: NO MORE HEROES
BASSIST: JEAN JACQUES BURNEL
TAB BY: [email protected]

S = Slide
* = Cut off note after playing

Bass comes in after keyboard intro
						

G|----------------------------------|---------------------------------|
D|----------------------------------|---------------------------------|
A|----------------------------------|---------------------------------|
E|----------------------------------|-----------------------------15S-|

			(A)

G|----------------------------------|---------------------------------|
D|----------------------------------|---------------------------------|
A|----------------------------------|---------------------------------|
E|---0---0---5---3------0---3---5---|---0---0---5---3------0---3---5--|

Repeat A another 9 times

			(B)

G|----------------------------------|---------------------------------|
D|----------------------------------|---------------------------------|
A|-----------2---0----------0---2---|-----------2---0----------0---2--|
E|---2---2--------------2-----------|---2---2--------------2----------|

Repeat B 

Repeat A another 5 times

Repeat B another 2 times


			(C)

G|----------------------------------|---------------------------------|
D|----------------------------------|---------------------------------|
A|---0---0---5---3------0---3---5---|---0---0---5---3------0---3---5--|
E|----------------------------------|---------------------------------|


Repeat C 

			(D)
			
G|----------------------------------|---------------------------------|
D|-----------2---0----------0---2---|-----------2---0----------0---2--|
A|---2---2--------------2-----------|---2---2--------------2----------|
E|----------------------------------|---------------------------------|


Repeat D 

Repeat C 

			(E)				

G|----------------------------------|---------------------------------|
D|----------------------------------|---------------------------------|
A|---0---0---5---3------0---3---5---|---0---0---5---3------0---12S-0--|
E|----------------------------------|---------------------------------|


Repeat A 26 times

Repeat B 2 times

Repeat C 2 times 

Repeat D 2 times

Repeat C

Repeat E

Repeat A 6 times
			(F)

G|----------------------------------|---------------------------------|
D|----------------------------------|---------------------------------|
A|----------------------------------|---------------------------------|
E|---0---0---5---3------0---3---5---|---0*----------------------------|







Back To Contents

Back To Main Stranglers Index