Second Coming


 SECOND COMING
 ARTIST: THE STRANGLERS
 ALBUM: THE GOSPEL ACCORDING TO THE MENINBLACK
 BASSIST: JEAN JACQUES BURNEL
 TAB BY [email protected]

 
                                   (A)
G|----------------------------------|---------------10-10--------------|
D|-----12---12--10----------10-10---|--------10-10----------12\--------|
A|------------------12-12-----------|-12-12----------------------------|
E|----------------------------------|----------------------------------|

                                   (B)
G|----------------------------------|---------------8--8---------------|
D|-----10---10--8----------8--8-----|--------8--8---------10--10/------|
A|-----------------10-10------------|-10-10----------------------------|
E|----------------------------------|----------------------------------|


                                   (C)
G|----------------------------------|---------------10-10--------------|
D|-----12---12--10----------10-10---|--------10-10----------12\--------|
A|------------------12-12-----------|-12-12----------------------------|
E|----------------------------------|----------------------------------|

                                   (D)
G|----------------------------------|---------------8--8---------------|
D|-----10---10--8----------8--8-----|--------8--8---------10--10/------|
A|-----------------10-10------------|-10-10----------------------------|
E|----------------------------------|----------------------------------|


                                   (E)
G|----------------------------------|---------------10-10--------------|
D|-----12---12--10----------10-10---|--------10-10----------12\--------|
A|------------------12-12-----------|-12-12----------------------------|
E|----------------------------------|----------------------------------|

                                   (F)
G|----------------------------------|---------------8--8---------------|
D|-----10---10--8----------8--8-----|--------8--8---------10--10/------|
A|-----------------10-10------------|-10-10----------------------------|
E|----------------------------------|----------------------------------|


                                   (G)
G|----------------------------------|---------------10-10--------------|
D|-----12---12--10----------10-10---|--------10-10----------12\--------|
A|------------------12-12-----------|-12-12----------------------------|
E|----------------------------------|----------------------------------|

                                   (H)
G|----------------------------------|---------------8--8---------------|
D|-----10---10--8----------8--8-----|--------8--8---------10--10/------|
A|-----------------10-10------------|-10-10----------------------------|
E|----------------------------------|----------------------------------|


                                   (I)
G|----------------------------------|---------------10-10--------------|
D|-----12---12--10----------10-10---|--------10-10----------12\--------|
A|------------------12-12-----------|-12-12----------------------------|
E|----------------------------------|----------------------------------|


                                   (J)
G|----------------------------------|---------------8--8---------------|
D|-----10---10--8----------8--8-----|--------8--8---------10--10/------|
A|-----------------10-10------------|-10-10----------------------------|
E|----------------------------------|----------------------------------|


                                   (K)
G|----------------------------------|---------------10-10--------------|
D|-----12---12--10----------10-10---|--------10-10----------12\--------|
A|------------------12-12-----------|-12-12----------------------------|
E|----------------------------------|----------------------------------|

                                   (L)
G|----------------------------------|---------------8--8---------------|
D|-----10---10--8----------8--8-----|--------8--8---------10--10-------|
A|-----------------10-10------------|-10-10----------------------------|
E|----------------------------------|----------------------------------|


                                   (M)
G|----------------------------------|----------------------------------|
D|--------2--1----------------------|--------4--3----------------------|
A|--1--1----------------2--1--------|--3--3----------------4--3--------|
E|----------------1--1--------------|----------------3--3--------------|
			

                                   (N)
G|----------------------------------|----------------------------------|
D|------2--1-------------------4--3-|----------------------------------|
A|-1--1------------2--1---3--3------|-------5-4-----5-4------5-4---5-4-|
E|-----------1--1-------------------|--5-5-------5-------5-5-----5-----|


                                   (O)
G|----------------------------------|---------------10-10--------------|
D|-----12---12--10----------10-10---|--------10-10----------12\--------|
A|------------------12-12-----------|-12-12----------------------------|
E|----------------------------------|----------------------------------|

                                   (P)
G|----------------------------------|---------------8--8---------------|
D|-----10---10--8----------8--8-----|--------8--8---------10--10/------|
A|-----------------10-10------------|-10-10----------------------------|
E|----------------------------------|----------------------------------|


                                   (Q)
G|----------------------------------|---------------10-10--------------|
D|-----12---12--10----------10-10---|--------10-10----------12\--------|
A|------------------12-12-----------|-12-12----------------------------|
E|----------------------------------|----------------------------------|

                                   (R)
G|----------------------------------|---------------8--8---------------|
D|-----10---10--8----------8--8-----|--------8--8---------10--10/------|
A|-----------------10-10------------|-10-10----------------------------|
E|----------------------------------|----------------------------------|


                                   (S)
G|----------------------------------|---------------10-10--------------|
D|-----12---12--10----------10-10---|--------10-10----------12\--------|
A|------------------12-12-----------|-12-12----------------------------|
E|----------------------------------|----------------------------------|

                                   (T)
G|----------------------------------|---------------8--8---------------|
D|-----10---10--8----------8--8-----|--------8--8---------10--10/------|
A|-----------------10-10------------|-10-10----------------------------|
E|----------------------------------|----------------------------------|


                                   (U)
G|----------------------------------|---------------10-10--------------|
D|-----12---12--10----------10-10---|--------10-10----------12\--------|
A|------------------12-12-----------|-12-12----------------------------|
E|----------------------------------|----------------------------------|

                                   (V)
G|----------------------------------|---------------8--8---------------|
D|-----10---10--8----------8--8-----|--------8--8---------10--10-------|
A|-----------------10-10------------|-10-10----------------------------|
E|----------------------------------|----------------------------------|


                                   (W)
G|----------------------------------|----------------------------------|
D|--------2--1----------------------|--------4--3----------------------|
A|--1--1----------------2--1--------|--3--3----------------4--3--------|
E|----------------1--1--------------|----------------3--3--------------|
			

                                   (X)
G|----------------------------------|----------------------------------|
D|------2--1-------------------4--3-|----------------------------------|
A|-1--1------------2--1---3--3------|-------5-4-----5-4------5-4---5-4-|
E|-----------1--1-------------------|--5-5-------5-------5-5-----5-----|


                                   (Y)
G|----------------------------------|---------------10-10--------------|
D|-----12---12--10----------10-10---|--------10-10----------12\--------|
A|------------------12-12-----------|-12-12----------------------------|
E|----------------------------------|----------------------------------|

                                   (Z)
G|----------------------------------|---------------8--8---------------|
D|-----10---10--8----------8--8-----|--------8--8---------10--10/------|
A|-----------------10-10------------|-10-10----------------------------|
E|----------------------------------|----------------------------------|

 Repeat Y & Z UNTIL THE SONG ENDS

BACK TO MENU