Baroque Bordello


 BAROQUE BORDELLO
 ARTISI: THE STRANGLERS 
 ALBUM: THE RAVEN 
 BASSIST : JEAN JACQUES BURNEL
 TAB BY [email protected]
 
 S= SLIDE
 
 KEYBOARD INTRO                    (A)
G|----------------------------------|----------------------------------|
D|--------6--6-6-6--4-4-4-----------|--------6--6-6-6--4-4-4-----------|
A|-4-4-4-------------------5--5-5-5-|-4-4-4-------------------5--5-5-5-|
E|----------------------------------|----------------------------------|			

                              
                                   (B)
G|----------------------------------|----------------------------------|
D|--------6--6-6-6--4-4-4-----------|--------6--6-6-6--4-4-4-----------|
A|-4-4-4-------------------5--5-5-5-|-4-4-4-------------------5--5-5-5-|
E|----------------------------------|----------------------------------|


                                   (C)
G|----------------------------------|----------------------------------|                                                                   
D|--------6--6-6-6--4-4-4-----------|--------6--6-6-6--4-4-4-----------|
A|-4-4-4-------------------5--5-5-5-|-4-4-4-------------------5--5-11S-|
E|----------------------------------|----------------------------------|


                                   (D)
G|----------------------------------|----------------------------------|
D|-------6---4----------------------|-------6---4----------------------|
A|---4-----------5---2--0---2--0----|---4-----------5---2--0---2--0----|
E|----------------------------------|----------------------------------|


                                   (E)
G|----------------------------------|----------------------------------|
D|-------------5---3---2------------|-------------5---3---2------------|
A|------2---5--------------3--2-----|------2---5--------------3---2----|
E|---3------------------------------|---3------------------------------|


                                   (F)
G|---------------8---6---5----------|----------------8---6---5---------|
D|-------5---8---------------6---5--|-------5----8--------------6---5--|
A|---6------------------------------|---6------------------------------|
E|----------------------------------|----------------------------------|


                                   (G)
G|----------------------------------|---------------------------7---5--|
D|---------------------------7---5--|-------------------7---5----------|
A|-------6---4---3---7---5----------|-------6---4---3------------------|
E|---4------------------------------|---4------------------------------|
                              
                 
                                   (H)
G|--10-10--10-10--9-9--9-9-9-10-----|--10-10--10-10--9-9-10S-----------|
D|----------------------------------|----------------------------------|
A|----------------------------------|----------------------------------|
E|----------------------------------|----------------------------------|


                                   (I)
G|---14-12-10---14-14--12--10-10----|---0-9--0-7--0-5--0-5-0--5-5--7---|
D|----------------------------------|----------------------------------|
A|----------------------------------|----------------------------------|
E|----------------------------------|----------------------------------|

 REPEAT I ANOTHER 3 TIMES
                                   (J)
G|----------------------------------|----------------------------------|
D|---------2------------------------|---------2------------------------|
A|------3---------------------------|------3---------------------------|
E|-5-5---------0--3--0--5--4--5--4--|-5-5---------0--3--0--5--4--5--4--|


                                   (K)
G|----------------------------------|----------------------------------|
D|---------2------------------------|---------2------------------------|
A|------3---------------------------|------3---------------------------|
E|-5-5---------0--3--0--5--4--5--4--|-5-5---------0--3--0--5--4--5--4--|


 VERSE                             (L)
G|----------------------------------|----------------------------------|
D|---------2------------------------|---------2------------------------|
A|------3---------------------------|------3---------------------------|
E|-5-5---------0--3--0--5--4--5--4--|-5-5---------0--3--0--5--4--5--4--|


                                   (M)
G|----------------------------------|----------------------------------|
D|---------2------------------------|----------------------------------|
A|------3---------------------------|------3---------------------------|
E|-5-5---------0--3--0--5--4--5--4--|-5-5---------0--3--0--5--4--5--4--|


                                   (N)
G|----------------------------------|----------------------------------|
D|---------2------------------------|---------2------------------------|
A|------3---------------------------|------3---------------------------|
E|-5-5---------0--3--0--5--4--5--4--|-5-5---------0--3--0--5--4--5--4--|


                                   (O)
G|----------------------------------|
D|---------2------------------------|
A|------3---------------------------|
E|-5-5---------0--3--0--5--4--5--4--|


 CHORUS                            (P)
G|---9-7-5--------------------------|---9-7-5--------------------------|
D|---------7--5---------------------|---------7--5---------------------|
A|--------------7-5-3-0-5-3---3-3-3-|--------------7-5-3-0-5-3---3-3-3-|
E|-0--------------------------------|-0--------------------------------|


                                   (Q)
G|---9-7-5--------------------------|---9-7-5--------------------------|
D|---------7--5---------------------|---------7--5---------------------|
A|--------------7-5-3-0-5-3---3-3-3-|--------------7-5-3-0-5-3---3-3-3-|
E|-0--------------------------------|-0--------------------------------|

 REPEAT L,M,N,O,

 REPEAT P,Q,
 
 REPEAT L,M,N
                                   (R)
G|----------------------------------|----------------------------------|
D|---------5--5-5-5-5--3--2--0------|---------5--7-7-7-7--5------------|
A|------3-----------------------3---|------3-----------------7--5--3---|
E|-5-5------------------------------|-5-5------------------------------|


                                   (S)
G|----------------------------------|------------5-5-5-5--3------------|
D|---------5--9-9-9-9--7------------|---------5--------------5--3--1---|
A|------3-----------------9--7--5---|------3---------------------------|
E|-5-5------------------------------|-5-5------------------------------|


                                   (T)
G|--------9--7--6--------------10-9-|--------9--7--6--------------10-9-|
D|-----7----------7-6-7-6--10-9-----|-----7----------7-6-7-6--10-9-----|
A|----------------------------------|----------------------------------|
E|-12S------------------------------|-12S------------------------------|


                                   (U)
G|--------9--7--6--------------10-9-|--------9--7--6--------------10-9-|
D|-----7----------7-6-7-6--10-9-----|-----7----------7-6-7-6--10-9-----|
A|----------------------------------|----------------------------------|
E|-12S------------------------------|-12S------------------------------|


                                   (V)
G|--------9--7--6--------------10-9-|----------9--7--6-----------------|
D|-----7----------7-6-7-6--10-9-----|-----7-------------7-6-7-6--------|
A|----------------------------------|---------------------------6-7----|
E|-12S------------------------------|-12S------------------------------|

BACK TO MENU