Bitching



ARTIST: THE STRANGLERS
SONG: BITCHING
ALBUM: NO MORE HEROES
BASSIST: JEAN JACQUES BURNEL
TAB BY: [email protected]

S = SLIDE
R = REST
(7) = DO NOT PICK



			(A)
G|----------------------------------|---------------------------------|
D|----------11--12--11--------------|---------11--12--14--12--11---S--|
A|---R--12--------------12--10--12--|-----12--------------------------|
E|----------------------------------|---------------------------------|

				
			(B)
G|----------------------------------|---------------------------------|
D|-(7)---7--11--12--11--------------|---------11--12------------------|
A|-----------------------12--10--12-|-----12--------------------------|
E|----------------------------------|------------------2------3-------|

			
			(C)
G|----------------------------------|---------------------------------|
D|----------------------------------|---------------------------------|
A|----------------------------------|---------------------------------|
E|---5---5---5---5---5---5---5---5--|--5---5---5---5---2-------3------|



			(D)
G|----------------------------------|---------------------------------|
D|----------------------------------|---------------------------------|
A|---0---0---0---0---0---0---0---12-|-----10---9---7---9---9---10---7-|
E|----------------------------------|---------------------------------|


REPEAT C  4 TIMES

				
			(E)			
G|----------------------------------|---------------------------------|
D|----------------------------------|---------------------------------|
A|----------------------------------|---------------------------------|
E|---5---5---5---5---5---5---5---5--|--5---5---5---5---3------2-------|

							
			(F)
G|----------------------------------|---------------------------------|
D|----------------------------------|---------------------------------|
A|----------------------------------|---------------------------------|
E|---0---0---0---0---0---0---0---0--|--0---0---0---0---3------2-------|


REPEAT F

			(G)			
G|----------------------------------|---------------------------------|
D|----------------------------------|---------------------------------|
A|----------------------------------|---------------------------------|
E|---0---0---0---0---0---0---0---0--|--0---0---0---0---2------3-------|



REPEAT C 6 TIMES

REPEAT E 

REPEAT F 2 TIMES

REPEAT G

REPEAT C 14 TIMES

REPEAT E

REPEAT F 2 TIMES

REPEAT G

REPEAT C 3 TIMES


			(H)
G|----------------------------------|---------------------------------|
D|----------------------------------|---------------------------------|
A|----------------------------------|------------------2------4-------|
E|---5---5---5---5---5---5---5---5--|--5---5---5---5------------------|


			(I)
G|----------------------------------|---------------------------------|
D|----------------------------------|---------------------------------|
A|---5---5---5---5---5---5---5---5--|--5---5---5---5---2------4-------|
E|----------------------------------|---------------------------------|

REPEAT I

			(J)
G|----------------------------------|---------------------------------|
D|----------------------------------|---------------------------------|
A|---5---5---5---5---5---5---5---5--|--5---5---5---5---4------5-------|
E|----------------------------------|---------------------------------|


			(K)
G|----------------------------------|---------------------------------|
D|----------------------------------|---------------------------------|
A|---7---7---7---7---7---7---7---7--|--7---7---7---7------------------|
E|----------------------------------|------------------2------3-------|

REPEAT C 10 TIMES

			(L)
G|----------------------------------|---------------------------------|
D|----------------------------------|---------------------------------|
A|----------------------------------|------------------2---2---4---4--|
E|---5---5---5---5---5---5---5---5--|--5---5---5---5------------------|



			(M)
G|----------------------------------|---------------------------------|
D|----------------------------------|---------------------------------|
A|---5---5---5---5---5---5---5---5--|--5---5---5---5---2---2---4------|
E|----------------------------------|---------------------------------|

REPEAT M

			(N)
G|----------------------------------|---------------------------------|
D|----------------------------------|---------------------------------|
A|---5---5---5---5---5---5---5---5--|--5---5---5---5---4---4---5---5--|
E|----------------------------------|---------------------------------|


REPEAT K

REPEAT C 3 TIMES

			(O)
G|----------------------------------|---------------------------------|
D|----------------------------------|---------------------------------|
A|----------------------------------|---------------------------------|
E|---5---5---5---5---5---5---5---3--|--R---3---R---3---R---2---3---4--|



			(P)
G|----------------------------------|---------------------------------|
D|----------------------------------|---------------------------------|
A|-------------------5---5---5---3--|---------------------------------|
E|---5-----------3------------------|--R---3---R---3---R---2---3---4--|

REPEAT P 2 TIMES

			(Q)
G|----------------------------------|---------------------------------|
D|----------------------------------|---------------------------------|
A|----------------------------------|---------------------------------|
E|---5-HOLD-------------------------|---------------------------------|



BACK TO MENU