Bring On The Nubiles


 SONG:  BRING ON THE NUBILES 
 ARTISIT: THE STRANGLERS 
 ALBUM: NO MORE HEROES
 BASSIST : JEAN JACQUES BURNEL
 TAB BY [email protected]

 
                                   (A)
G|----------------------------------|----------------------------------|
D|----------------------------------|----------------------------------|
A|----------------------------------|----------------------------------|
E|--0--7--0--5---0-3-0--0-0-3-0-----|-----7--0--5---0-3-0--0-0-3-0-----|
	

                                   (B)
G|----------------------------------|----------------------------------|
D|----------------------------------|----------------------------------|
A|----------------------------------|----------------------------------|
E|-----7--0--5---0-3-0--0-0-3-0-----|-----7--0--5---0-3-0--0-0-3-0-----|


                                   (C)
G|----------------------------------|----------------------------------|
D|----------------------------------|----------------------------------|
A|----------------------------------|-3-3-3-3-3-3-3-3--5-5-5-5-5-5-5---|
E|-3-3-3-3-3-3-3-3--5-5-5-5-5-5-5-5-|--------------------------------0-| 


                                   (D)
G|----------------------------------|----------------------------------|
D|----------------------------------|----------------------------------|
A|----------------------------------|----------------------------------|
E|-----7--0--5---0-3-0--0-0-3-0-----|-----7--0--5---0-3-0--0-0-3-0-----|


                                   (E)
G|----------------------------------|----------------------------------|
D|----------------------------------|----------------------------------|
A|----------------------------------|----------------------------------|
E|-----7--0--5---0-3-0--0-0-3-0-----|-----7--0--5---0-3-0--0-0-3-0-----|


                                   (F)
G|----------------------------------|----------------------------------|
D|----------------------------------|----------------------------------|
A|----------------------------------|-3-3-3-3-3-3-3-3--5-5-5-5-5-5-5-5-|
E|-3-3-3-3-3-3-3-3--5-5-5-5-5-5-5-5-|----------------------------------|


                                   (G)
G|----------------------------------|----------------------------------|
D|----------------------------------|----------------------------------|
A|----------------------------------|----------------------------------|
E|-----7--5--3--0----7--5--3--0-----|-----7--5--3--0----7--5--3--0-----|


                                   (H)
G|----------------------------------|----------------------------------|
D|----------------------------------|----------------------------------|
A|----------------------------------|-3-3-3-3-3-3-3-3--5-5-5-5-5-5-5---|
E|-3-3-3-3-3-3-3-3--5-5-5-5-5-5-5-5-|--------------------------------0-|


                                   (I)
G|----------------------------------|----------------------------------|
D|----------------------------------|----------------------------------|
A|----------------------------------|----------------------------------|
E|-----7--0--5---0-3-0--0-0-3-0-----|-----7--0--5---0-3-0--0-0-3-0-----|


                                   (J)
G|----------------------------------|----------------------------------|
D|----------------------------------|----------------------------------|
A|----------------------------------|----------------------------------|
E|-----7--0--5---0-3-0--0-0-3-0-----|-----7--0--5---0-3-0--0-0-3-0-----|


                                   (K)
G|----------------------------------|----------------------------------|
D|----------------------------------|----------------------------------|
A|----------------------------------|----------------------------------|
E|-----7--0--5---0-3-0--0-0-3-0-----|-----7--0--5---0-3-0--0-0-3-0-----|


                                   (L)
G|----------------------------------|----------------------------------|
D|----------------------------------|----------------------------------|
A|----------------------------------|----------------------------------|
E|-----7--5--3--0----7--5--3--0-----|-----7--5--3--0----7--5--3--0-----|


                                   (M)
G|----------------------------------|----------------------------------|
D|----------------------------------|----------------------------------|
A|----------------------------------|-3-3-3-3-3-3-3-3--5-5-5-5-5-5-5---|
E|-3-3-3-3-3-3-3-3--5-5-5-5-5-5-5-5-|--------------------------------0-|


                                   (N)
G|----------------------------------|----------------------------------|
D|----------------------------------|----------------------------------|
A|----------------------------------|----------------------------------|
E|-----7--0--5---0-3-0--0-0-3-0-----|-----7--0--5---0-3-0--0-0-3-0-----|


                                   (O)
G|----------------------------------|----------------------------------|
D|----------------------------------|----------------------------------|
A|----------------------------------|----------------------------------|
E|-----7--0--5---0-3-0--0-0-3-0-----|-----7--0--5---0-3-0--0-0-3-0-----|


                                   (P)
G|----------------------------------|----------------------------------|
D|----------------------------------|----------------------------------|
A|----------------------------------|----------------------------------|
E|-----7--0--5---0-3-0--0-0-3-0-----|-----7--0--5---0-3-0--0-0-3-0-----|


                                   (Q)
G|----------------------------------|----------------------------------|
D|----------------------------------|----------------------------------|
A|----------------------------------|----------------------------------|
E|-----7--0--5---0-3-0--0-0-3-0-----|-----7--0--5---0-3-0--0-0-3-0-----|


                                   (R)
G|----------------------------------|----------------------------------|
D|----------------------------------|----------------------------------|
A|----------------------------------|----------------------------------|
E|-----7--0--5---0-3-0--0-0-3-0-----|-----7--0--5---0-3-0--0-0-3-0-----|


                                   (S)
G|----------------------------------|
D|----------------------------------|
A|----------------------------------|
E|-----7--0--5---0-3-0--0-0-3-0-----|


                                   (T)
G|----------------------------------|----------------------------------|
D|----------------------------------|----------------------------------|
A|----------------------------------|-3-3-3-3-3-3-3-3--5-5-5-5-5-5-5-5-|
E|-3-3-3-3-3-3-3-3--5-5-5-5-5-5-5-5-|----------------------------------|


                                   (U)
G|----------------------------------|----------------------------------|
D|----------------------------------|----------------------------------|
A|----------------------------------|----------------------------------|
E|-----7--5--3--0----7--5--3--0-----|-----7--5--3--0----7--5--3--0-----|





BACK TO MENU