Crabs


 CRABS

 ARTIST: JEAN JACQUES BURNEL
 ALBUM: EUROMAN COMETH
 BASSIST: JEAN JACQUES BURNEL
  TAB BY [email protected]

 v=BEND NOTE DOWN

 s\=SLIDE 
 
 R=rest

 *=HOLD NOTE
                                   (A)
G|-----------------------12--11--10-|-----------------------12--11--10-|
D|-----13--------15--13-------------|-----13--------15--13-------------|
A|-11--------13---------------------|-11--------13---------------------|
E|----------------------------------|----------------------------------|

                                   (B)
G|-----------------------12--11--10-|----------------------------------|
D|-----13--------15--13-------------|-----13--------15-----------------|
A|-11--------13---------------------|-11--------13---------------------|
E|----------------------------------|----------------------------------|


                                   (C)
G|----------------------------------|----------------------------------|
D|----------------------------------|----------------------------------|
A|----------------------------------|----------------------------------|
E|--7---7----5----0----2----5-------|--7---7----5----0----2----5-------|


                                   (D)
G|----------------------------------|----------------------------------|
D|----------------------------------|----------------------------------|
A|----------------------------------|----------------------------------|
E|--7---7----5----0----2----5-------|--7v-R----------------------------|


                                   (E)
G|----------------------------------|----------------------------------|
D|----------------------------------|----------------------------------|
A|----------------------------------|----------------------------------|
E|--7---7----5----0----2----5-------|--7---7----5----0----2----5-------|


                                   (F)
G|----------------------------------|----------------------------------|
D|----------------------------------|----------------------------------|
A|----------------------------------|----------------------------------|
E|--7---7----5----0----2----5-------|--7v-R----------------------10--9-|


                                   (G)
G|----------------------------------|----------------------------------|
D|----------------------------------|----------------------------------|
A|----------------------------------|----------------------------------|
E|-7s\----5s\----3-2-3-2-3-2--10--9-|-7s\----5s\----3-2-3-2-3-2--10--9-|


                                   (H)
G|----------------------------------|----------------------------------|
D|----------------------------------|----------------------------------|
A|----------------------------------|----------------------------------|
E|-7s\----5s\----3-2-3-2-3-2-3-2----|--5-R-----------------------10--9-|


                                   (I)
G|----------------------------------|----------------------------------|
D|----------------------------------|----------------------------------|
A|----------------------------------|----------------------------------|
E|-7s\----5s\----3-R--------2--3--2-|-7s\----5s\----3-2-3-2-3-2-3-2----|
                                                    |______________|
                                                       DO NOT PICK
                                   (J)
G|----------------------------------|----------------------------------|
D|----------------------------------|----------------------------------|
A|----------------------------------|----------------------------------|
E|-7s\----5s\----3s\----------3--2*-|----------------------------------|


                                   (K)
G|----------------------------------|----------------------------------|
D|----------------------------------|----------------------------------|
A|----------------------------------|----------------------------------|
E|--7---7----5----0----2----5-------|--7---7----5----0----2----5-------|


                                   (L)
G|----------------------------------|----------------------------------|
D|----------------------------------|----------------------------------|
A|----------------------------------|----------7v----------------------|
E|--7---7----5----0----2----5-------|--7-------------------------------|


                                   (M)
G|----------------------------------|----------------------------------|
D|----------------------------------|----------------------------------|
A|----------------------------------|----------------------------------|
E|--7---7----5----0----2----5-------|--7---7----5----0----2----5-------|
			

                                   (N)
G|----------------------------------|----------------------------------|
D|----------------------------------|----------------------------------|
A|----------------------------------|----------------------------------|
E|--7---7----5----0----2----5-------|--7v------------------------------|


                                   (O)
G|-----------------------12--11--10-|-----------------------12--11--10-|
D|-----13--------15--13-------------|-----13--------15--13-------------|
A|-11--------13---------------------|-11--------13---------------------|
E|----------------------------------|----------------------------------|


                                   (P)
G|-----------------------12--11--10-|----------------------------------|
D|-----13--------15--13-------------|-----13--------15-----------------|
A|-11--------13---------------------|-11--------13---------------------|
E|----------------------------------|----------------------------------|


                                   (Q)
G|----------------------------------|----------------------------------|
D|----------------------------------|----------------------------------|
A|----------------------------------|----------------------------------|
E|--7---7----5----0----2----5-------|--7---7----5----0----2----5-------|


                                   (R)
G|----------------------------------|----------------------------------|
D|----------------------------------|----------------------------------|
A|----------------------------------|----------------------------------|
E|--7---7----5----0----2----5-------|--7---7----5----0----2----5-------|


                                   (S)
G|----------------------------------|----------------------------------|
D|----------------------------------|----------------------------------|
A|----------------------------------|----------------------------------|
E|--7---7----5----0----2----5-------|--7---7----5----0----2----5-------|


                                   (T)
G|----------------------------------|----------------------------------|
D|----------------------------------|----------------------------------|
A|----------------------------------|----------------------------------|
E|--7---7----5----0----2----5-------|--7---7----5----0----2----5-------|


                                   (U)
G|----------------------------------|----------------------------------|
D|----------------------------------|----------------------------------|
A|----------------------------------|----------------------------------|
E|--7---7----5----0----2----5-------|--7---7----5----0----2----5-------|



BACK TO MENU