Genetix


 GENETIX 
 ARTISI: THE STRANGLERS 
 ALBUM: THE RAVEN
 BASSIST : JEAN JACQUES BURNEL
 TAB BY [email protected]

 
 B= BEND
 P= PAUSE
 /= SLIDE DOWN
 S/= SLIDE UP TO THE NEXT NOTE


 DRUMS INTRO                       (A)
G|----------------------------------|----------------------------------|
D|----------------------------------|----------------------------------|
A|----------------------------------|----------------------------------|
E|---------------5------------------|--------------5-------------------|
			

                                   (B)
G|----------------------------------|----------------------------------|
D|----------------------------------|----------------------------------|
A|----------------------------------|----------------------------------|
E|-1--1-1-1--3--6\--1-1-1-1--3--6\--|-1--1-1-1--3--6\--1-1-1-1--3--6\--|


                                   (C)
G|----------------------------------|----------------------------------|
D|----------------------------------|----------------------------------|
A|----------------------------------|----------------------------------|
E|-3P-S/-5-3P-S/-5-3P-S/-5-3P-S/-5--|-3P-S/-5-3P-S/-5-3P-S/-5-3P-S/-5--|


                                   (D)
G|----------------------------------|----------------------------------|
D|----------------------------------|----------------------------------|
A|-7-7-7-7-5-7-5-----7-5------------|--7---7-5----7--5-----------------|
E|------------------------7-5-3-----|-------------------7--3-----------|


                                   (E)
G|----------------------------------|----------------------------------|
D|----------------------------------|----------------------------------|
A|-7--5---------5-------------------|-------5---------------------5----|
E|--------0--7-----5--7--7S\---4--2-|-0--5-----7--5---0--4--5--7-------|

REPEAT B,C,D,E


                                   (F)
G|----------------------------------|----------------------------------|
D|----------------------------------|----------------------------------|
A|---------7----------5-7-----------|-5-7-5-4-3-2-0-0-2-0-0-2-0-0-2-0-0-|
E|-0-4-5-7----0-4-5-7------0-4-5-7--|----------------------------------|


                                   (G)
G|----------------------------------|
D|----------------------------------|
A|-2-0-0-2-0-0-2-0-0-2-0-0----------|
E|----------------------------------|

 REPEAT B,C,D

                                   (H)
G|----------------------------------|----------------------------------|
D|----------------------------------|----------------------------------|
A|-7--5---------5-------------------|-------5---------------------5----|
E|--------0--7-----5--7--7S\---4--2-|-0--5-----7--5---0--4--5--7-------|


                                   (I)
G|----------------------------------------|
D|----------------------------------------|
A|---------7----------5-7-----------5-7-5-|
E|-0-4-5-7----0-4-5-7------0-4-5-7--------|


                                   (J)
G|----------------9-7-5-4-5-4-2-----|----------------4-5-5-5-7---------|
D|--------7-7-7---------------------|---3-3-3-3-5-7--------------------|
A|----------------------------------|----------------------------------|
E|----------------------------------|----------------------------------|


 REPEAT J
                                   (K)
G|-10-10-10-10-10-10-10-10--9-9-9-9--12-12-12-12-12-12-12-12-10-10-10-10-|
D|---------------------------------------------------------------------|
A|---------------------------------------------------------------------|
E|---------------------------------------------------------------------|


                                   (L)
G|-9-10-9-7-9-7-5-7-5-3-5-3-2-3-2------------------------4-------------|
D|--------------------------------3-2-0---------5--3--5----------------|
A|--------------------------------------3-2-0--------------------------|
E|--------------------------------------------3------------------------|


                                   (M)
G|--------7-5-4-2-0---------------------4-4-5-4-5-4-5-4-5-4-5-4-5-4-5-4-5-|
D|-3--5-------------3-2-0---------3--5----------------------------------|
A|------------------------3-2-------------------------------------------|
E|----------------------------------------------------------------------|


                                   (N)
G|--------7-5-4-2-0-----------------------------------------------------|
D|-3--5-------------3-2-0--------3-2-0----------------------------------|
A|------------------------3-2-----------3-2-0---------------------------|
E|-------------------------------------------3-3-3-3-3-3-3--3-3-3-3-3-3-3-|


                                   (0)
G|----------------------------------|-----------------------------------|
D|----------------------------------|-----------------------------------|
A|----------------------------------|-----------------------------------|
E|----3-3-3-3-3-3-3--3-3-3-3-3-3-3--|----3-3-3-3-3-3-3--3-3-3-3-3-3-3---|


                                   (P)
G|----------------------------------|-----------------------------------|
D|----------------------------------|-----------------------------------|
A|----------------------------------|-----------------------------------|
E|----3-3-3-3-3-3-3--3-3-3-3-3-3-3--|----3-3-3-3-3-3-3--3-3-3-3-3-3-3---|


                                   (Q)
G|----------------------------------|-----------------------------------|
D|----------------------------------|-----------------------------------|
A|----------------------------------|----1-1-1-1-1-1-1--1-1-1-1-1-1-1---|
E|----1-1-1-1-1-1-1--1-1-1-1-1-1-1--|-----------------------------------|


                                   (R)
G|----------------------------------|-----------------------------------|
D|----------------------------------|-----------------------------------|
A|----0-0-0-0-0-0-0--3-3-3-3-3-3----|------5-5-5-5-5-5------------------|
E|----------------------------------|-----------------------------------|


                                   (S)
G|------------------------------------------------------------------------|
D|-----3-5-0--------------------3-5-7-5-3-----3-5----------1-3-1---1-3-1--|
A|-----------4-3-0-1-1-0-----5--------------5------------3-------3-------3|
E|-3----------------------3---------------------------1-------------------|


                                   (T)
G|---------------3-5-8-7-5-------------------------------------------------|
D|-1-3-1---1-3-5------------------6-8-10-8-6---6-8-------6-8--10-8-6-10-8-6|
A|-------3----------------------8------------8---------8-------------------|
E|---------------------------6-----------------------6---------------------|


                                   (U)
G|------------------7--9--12--11--9-|-----------3------------------5-------|
D|---------5--7--9------------------|-------5-------5----------7-------7---|
A|------7---------------------------|---3------------------5---------------|
E|---5------------------------------|--------------------------------------|


                                   (V)
G|-------------------------------------------------------------------------|
D|------3-5-3----3-5-3---3-5-3----3-5-3-5-3-7-5-3---------1-3-1---1-3-1----|
A|----5-------5--------5-------5-----------------------3--------3-------3--|
E|-3------------------------------------------------1----------------------|


                                   (W)
G|----------------7-5-3---3-5----------------------------------------------|
D|-7-5-3---3-5----------5------------6-8-10-8-6---6-8--10-8-6---6-8--------|
A|-------5-------------------------8------------8-------------8------------|
E|------------------------------6------------------------------------------|


                                   (X)
G|----------------------------------|-----------3------------------5-------|
D|---------5--7--9--7--5-----5--7---|-------5-------5----------7-------7---|
A|------7-----------------7---------|---3------------------5---------------|
E|---5------------------------------|--------------------------------------|

                                   (Y)
G|----------------------------------|---------------------------------|
D|----------------------------------|---------------------------------|
A|--------------------------------1B|--------------3B---------------5B|
E|-3-3-3-3-3-3-3-1B--3-3-3-3-3-3-3--|-3-3-3-3-3-3-3----3-3-3-3-3-3-3--|


 REPEAT Y

                                   (Z)
G|----------------------------------|---------------------------------|
D|------------------------------8B--|--------------10B-------------12B|
A|--------------8B------------------|---------------------------------|
E|-3-3-3-3-3-3-3---3-3-3-3-3-3-3----|-3-3-3-3-3-3-3---3-3-3-3-3-3-3---|


                                   (AA)
G|----------------------------------|----------------------------------|
D|----------------------------------|----------------------------------|
A|--------------8B--------------8B--|----------------------------------|
E|-3-3-3-3-3-3-3---3-3-3-3-3-3-3----|-3-3-3-3-3-3-3-1-2-3-1-2-3-1-2----|


                                   (AB)
G|----------------------------------|
D|----------------------------------|
A|----------------------------------|
E|-3--3--3--3--3--3--3--3--3--3-----|

BACK TO MENU