(Get A) Grip (On Yourself)


ARTIST: THE STRANGLERS
SONG: (GET A) GRIP (ON YOURSELF)
ALBUM: RATTUS NORVEGICUS
BASSIST: JEAN JACQUES BURNEL
TAB BY: [email protected]

R = REST

S = SLIDE

(7) DO NOT PICK
			(A)
G|----------------------------------|---------------------------------|
D|----------------------------------|---------------------------------|
A|----------------------------------|---------------------------------|
E|---3------3---3---3---3---1-------|--3---3---3---3---3---3---1---2--|

			(B)	
G|----------------------------------|---------------------------------|
D|----------------------------------|---------------------------------|
A|----------------------------------|---------------------------------|
E|---3---3---3---3---3---3---1---2--|--3---3---3---3---3---3---1---2--|

REPEAT B, B, B, B, B
		
			(C)
G|----------------------------------|---------------------------------|
D|----------------------------------|---------------------------------|
A|----------------------------------|---------------------------------|
E|---3---3---3---3---3---3---3---3--|--3---3---3---3---3---3---3---3--|
				
			(D)
G|----------------------------------|---------------------------------|
D|----------------------------------|---------------------------------|
A|----------------------------------|--3---3---2---0------------------|
E|---1---1---1---1---1---1---1---R--|------------------3---3---1---2--|

			(E)
G|----------------------------------|---------------------------------|
D|----------------------------------|---------------------------------|
A|----------------------------------|---------------------------------|
E|---3---3---3---3---3---3---1---2--|--3---3---3---3---3---3---3---3--|

			(F)
G|----------------------------------|---------------------------------|
D|----------------------------------|---------------------------------|
A|----------------------------------|--3---3---2---0------------------|
E|---1---1---1---1---1---1---1---R--|------------------3---3---3---3--|

			(G)
G|----------------------------------|---------------------------------|
D|----------------------------------|------7---8--10---8---7---8---7--|
A|---5---5---5-R-0---5---0---5-S-(7)|--8------------------------------|
E|----------------------------------|---------------------------------|

			(H)
G|----------------------------------|---------------------------------|
D|----------------------------------|---------------------------------|
A|----------------------------------|----------------------0---2---3--|
E|---3---3---3---3---3---3---1---2--|--3---3---3---3---3--------------|
			
			(I)			
G|----------------------------------|------------------7--------------|
D|----------------------------------|------7---8--10------10---8---7--|
A|---5---5---5-R-0---5--0---5---7---|--8------------------------------|
E|----------------------------------|---------------------------------|

REPEAT B, E, D, E, F

REPEAT I, H, G, H

			(J)						
G|----------------------------------|---------------------------------|
D|----------------------------------|---------------------------------|
A|---5---5---5---5---5---5---5---5--|--5---5---5---5---5---5---5---5--|
E|----------------------------------|---------------------------------|

			(K)
G|----------------------------------|---------------------------------|
D|----------------------------------|---------------------------------|
A|---5---5---5---5---5---5---3---4--|--5---5---5---5---5---8---7---6--|
E|----------------------------------|---------------------------------|

REPEAT J
			(L)
G|----------------------------------|---------------------------------|
D|----------------------------------|---------------------------------|
A|---5---5---5---5---5---5---5---5--|--5---5---5---5---5---5---3---4--|
E|----------------------------------|---------------------------------|

REPEAT J
			(M)
G|----------------------------------|---------------------------------|
D|----------------------------------|---------------------------------|
A|---5---5---5---5---8---8---7---8--|--7---7---7---7---7---6---6---6--|
E|----------------------------------|---------------------------------|

REPEAT J
			(N)
G|----------------------------------|---------------------------------|
D|----------------------------------|---------------------------------|
A|----------------------------------|----------------------0---3---0--|
E|---3---3---3---3---3---3---3---3--|--3---3---3---3---3--------------|

			(O)
G|----------------------------------|---------------------------------|
D|-------4---5---4------------------|------2---3---2------------------|
A|---5---------------0---4---5---4--|--3-------------------0---1---0--|
E|----------------------------------|------------------1--------------|

			(P)
G|----------------------------------|---------------------------------|
D|----------------------------------|---------------------------------|
A|----------------------------------|----------------------0---2---3--|
E|---3---3---3---3---3---3---1---2--|--3---3---3---3---3--------------|

REPEAT O
			(Q)
G|----------------------------------|---------------------------------|
D|----------------------------------|---------------------------------|
A|----------5---5---3---3-----------|----------5---5---3---3----------|
E|--3---3-------------------6---6---|--3---3-------------------6---6--|

REPEAT O
			(R)
G|----------------------------------|---------------------------------|
D|----------------------------------|---------------------------------|
A|----------5---5---3---3-----------|---------------------------------|
E|--3---3-------------------6---6---|--3---3---1---2---3---3---1---2--|

REPEAT O, Q, O
			(S)
G|----------------------------------|---------------------------------|
D|----------------------------------|---------------------------------|
A|----------------------------------|----------------------0---2---3--|
E|---3---3---3---3---3---3---1------|--3---3---3---3---3--------------| 

REPEAT O
			(T)
G|----------------------------------|---------------------------------|
D|----------------------------------|---------------------------------|
A|----------------------------------|---------------------------------|
E|---3---3---3---3---3---3---1------|--3---3---3---3---3---3---1------| 

REPEAT C, D, E 
			(U)
G|----------------------------------|---------------------------------|
D|----------------------------------|---------------------------------|
A|----------------------------------|--3---3---2---0------------------|
E|---1---1---1---1---1---1---1---1--|------------------3---3---3---3--|

REPEAT I, P, I, P

REPEAT J, L, J
			(V)  
G|----------------------------------|---------------------------------|
D|----------------------------------|---------------------------------|
A|---5---5---5---5---5---5---3---4--|--5---5---5---5---5---5---3---4--|
E|----------------------------------|---------------------------------|

REPEAT J, K, J, N

REPEAT O, P, O
			(W)
G|----------------------------------|---------------------------------|
D|----------------------------------|---------------------------------|
A|----------5---5---3---3-----------|----------------------0---2---3--|
E|--3---3-------------------6---6---|--3---3---1---2---3--------------|

REPEAT O, Q, O, P, O

			(X)
G|----------------------------------|---------------------------------|
D|----------------------------------|---------------------------------|
A|----------------------------------|---------------------------------|
E|---3---HOLD-----------------------|------------------1---HOLD-------|





BACK TO MENU