Heaven Or Hell


 HEAVEN OR HELL
 ARTIST: THE STRANGLERS
 ALBUM: IN THE NIGHT
 BASSIST: JEAN JACQUES BURNEL
 TAB BY [email protected]

 R=REST

 
                                   (A)
G|----------------------------------|----------------------------------|
D|------------------5----4----------|--------------------5----5S/--7---|
A|--------------7-------------------|---------------7------------------|
E|--5-R----5-----------------7---5--|--5-R------5----------------------|


                                   (B)
G|----------------------------------|----------------------------------|
D|-5------4-------------------------|-------------------5--5---7---9-R-|
A|----------------7------5------3---|--------------7-------------------|
E|----------------------------------|--5-R----5------------------------|


                                   (C)
G|----------------------------------|----------------------------------|
D|----------------------------------|----------------------------------|
A|----------------------------------|----------------------------------|
E|--3--5--5---0--3---5--5----3--2---|--3--5--5---0--3---5--5----3--2---|


                                   (D)
G|----------------------------------|----------------------------------|
D|----------------------------------|----------------------------------|
A|----------------------------------|------------3-R--------3---5--5-5-|
E|--2----0-R------------------------|--3----5-------------5------------|


                                   (E)
G|----------------------------------|----------------------------------|
D|----------------------------------|----------------------------------|
A|-----3---5--5-5-----------3--5--3-|----5--3--------5--3-----5--3-----|
E|--5--------------------5----------|-5----------5---------5-----------|


                                   (F)
G|----------------------------------|----------------------------------|
D|----------------------------------|----------------------------------|
A|----------------------------------|----------------------------------|
E|--3--5--5---0--3---5--5----3--2---|--3--5--5---0--3---5--5----3--2---|


                                   (G)
G|----------------------------------|----------------------------------|
D|----------------------------------|----------------------------------|
A|----------------------------------|------------3-R--------3---5--5-5-|
E|--2----0-R------------------------|--3----5-------------5------------|


                                   (H)
G|----------------------------------|----------------------------------|
D|----------------------------------|----------------------------------|
A|-----3---5--5-5-----------3--5--3-|----5--3--------5--3-----5--3-----|
E|--5--------------------5----------|-5----------5---------5--------5--|


                                   (I)
G|----------------------------------|----------------------------------|
D|----------------------------------|--9----7----5---------------------|
A|---------------5----5--7-------7--|------------------7----5----3-----|
E|-3---3--3---3---------------------|----------------------------------|


                                   (J)
G|----------------------------------|----------------------------------|
D|----------------------------------|--9----7----5---------------------|
A|-------------5----5--7----7-------|------------------7----5----3-----|
E|----3----3------------------------|----------------------------------|


                                   (K)
G|----------------------------------|----------------------------------|
D|----------------------------------|----------------------------------|
A|-------------5----5--7----7--8----|----3--5--5-5--------3--5--5-5----|
E|----3----3------------------------|-5----------------5---------------|


                                   (L)
G|----------------------------------|----------------------------------|
D|----------------------------------|----------------------------------|
A|---------3--5--3-------5---3------|---5--3------------5---3----------|
E|-----5-------------5-----------5--|----------5-----------------------|


                                   (M)
G|----------------------------------|----------------------------------|
D|----------------------------------|----------------------------------|
A|----------------------------------|----------------------------------|
E|--3--5--5---0--3---5--5----3--2---|--3--5--5---0--3---5--5----3--2---|
			

                                   (N)
G|----------------------------------|----------------------------------|
D|----------------------------------|----------------------------------|
A|----------------------------------|----------------------------------|
E|--3--5--5---0--3---5--5----3--2---|--3--5--5---0--3---5--5----3--2---|


                                   (O)
G|----------------------------------|----------------------------------|
D|----------------------------------|----------------------------------|
A|----------------------------------|------------3-R--------3---5--5-5-|
E|--2----0-R------------------------|--3----5-------------5------------|


                                   (P)
G|----------------------------------|---------------5--4--5----7--5--4-|
D|----------------------------------|-----5--4--5----------------------|
A|-----3---5--5-5-----------3--5--3-|-5--------------------------------|
E|--5--------------------5----------|----------------------------------|


                                   (Q)
G|----------------------------------|----------------------------------|
D|----------------------------------|--9----7----5---------------------|
A|---------------5----5--7-------7--|------------------7----5----3-----|
E|-3---3--3---3---------------------|----------------------------------|


                                   (R)
G|----------------------------------|----------------------------------|
D|----------------------------------|--9----7----5---------------------|
A|-------------5----5--7----7-------|------------------7----5----3-----|
E|----3----3------------------------|----------------------------------|


                                   (S)
G|----------------------------------|----------------------------------|
D|----------------------------------|----------------------------------|
A|-------------5----5--7----7--8----|----3--5--5-5--------3--5--5-5----|
E|----3----3------------------------|-5----------------5---------------|


                                   (T)
G|----------------------------------|----------------------------------|
D|----------------------------------|----------------------------------|
A|---------3--5--3-------5---3------|---5--3------------5---3----------|
E|-----5-------------5-----------5--|----------5-----------------------|


                                   (U)
G|----------------------------------|----------------------------------|
D|----------------------------------|----------------------------------|
A|------------------------------3-R-|----------------------5---7--7-7--|
E|--3----5-R-----------3----5-------|-------------------7--------------|


                                   (V)
G|----------------------------------|----------------------------------|
D|----------------------------------|----------------------------------|
A|-----5---7--7-7---------5--7--5---|------7--5------7--5------7--5----|
E|--7------------------7------------|--7---------7---------7---------7-|


                                   (W)
G|----------------------------------|----------------------------------|
D|----------------------------------|----------------------------------|
A|------------------------------3-R-|-----5---7--7-7--------5---7--7-7-|
7E|--3----5-R------------3----5-----|--7----------------7--------------|


                                   (X)
G|----------------------------------|
D|----------------------------------|
A|-----3---5--5-5--------3---5--5-5-|
E|--5-----------------5-------------|


                                   (Y)
G|----------------------------------|----------------------------------|
D|------------------5----4----------|--------------------5----5S/--7---|
A|--------------7-------------------|---------------7------------------|
E|--5-R----5-----------------7---5--|--5-R------5----------------------|


                                   (Z)
G|----------------------------------|----------------------------------|
D|-5------4-------------------------|-------------------5--5---7---9-R-|
A|----------------7------5------3---|--------------7-------------------|
E|----------------------------------|--5-R----5------------------------|


                                   (AA)
G|----------------------------------|----------------------------------|
D|----------------------10---9---7--|--------------------5----5----7---|
A|----------------------------------|---------------7------------------|
E|----------------------------------|--5-R------5----------------------|


                                   (AB)
G|----------------------------------|----------------------------------|
D|--10---9---10------12---10---12---|--14---12---14------16---14---16--|
A|----------------------------------|----------------------------------|
E|----------------------------------|----------------------------------|


                                   (AC)
G|----------------------------------|----------------------------------|
D|----------------------------------|----------------------------------|
A|----------------------------------|------------3-R--------3---5--5-5-|
E|------0-R-------------------------|--3----5-------------5------------|


                                   (AD)
G|----------------------------------|----------------------------------|
D|----------------------------------|----------------------------------|
A|-----3---5--5-5-----------3--5--3-|----5--3--------5--3-----5--3-----|
E|--5--------------------5----------|-5----------5---------5--------5--|


                                   (AE)
G|----------------------------------|----------------------------------|
D|----------------------------------|--9----7----5---------------------|
A|---------------5----5--7-------7--|------------------7----5----3-----|
E|-3---3--3---3---------------------|----------------------------------|


                                   (AF)
G|----------------------------------|----------------------------------|
D|----------------------------------|--9----7----5---------------------|
A|-------------5----5--7----7-------|------------------7----5----3-----|
E|----3----3------------------------|----------------------------------|


                                   (AG)
G|----------------------------------|----------------------------------|
D|----------------------------------|----------------------------------|
A|-------------5----5--7----7--8----|----3--5--5-5--------3--5--5-5----|
E|----3----3------------------------|-5----------------5---------------|


                                   (AH)
G|----------------------------------|----------------------------------|
D|----------------------------------|----------------------------------|
A|---------3--5--3-------5---3------|---5--3------------5---3----------|
E|-----5-------------5-----------5--|----------5----------------5------|


                                   (AI)
G|----------------------------------|----------------------------------|
D|----------------------------------|--9----7----5---------------------|
A|-------------5----5--7----7-------|------------------7----5----3-----|
E|----3----3------------------------|----------------------------------|


                                   (AJ)
G|----------------------------------|----------------------------------|
D|----------------------------------|--9----7----5---------------------|
A|-------------5----5--7----7-------|------------------7----5----3-----|
E|----3----3------------------------|----------------------------------|


                                   (AK)
G|----------------------------------|----------------------------------|
D|----------------------------------|----------------------------------|
A|-------------5----5--7----7--8----|----3--5--5-5--------3--5--5-5----|
E|----3----3------------------------|-5----------------5---------------|


                                   (AL)
G|----------------------------------|----------------------------------|
D|----------------------------------|----------------------------------|
A|---------3--5--3-------5---3------|---5--3------------5---3----------|
E|-----5-------------5-----------5--|----------5-----------------5-----|

 REPEAT AI TOAL UNTIL THE SONG FADES OUT
  


BACK TO MENU