Four Horsemen


 FOUR HORSEMEN
 ARTIST: THE STRANGLERS
 ALBUM: THE GOSPEL ACCORDING TO THE MENINBLACK
 BASSIST: JEAN JACQUES BURNEL
  TAB BY [email protected]

 
                                   (A)
G|----------------------------------|----------------------------------|
D|----------------------------------|----------------------------------|
A|----------------------3---1-------|----------------------3---1-------|
E|--3---1---0---1---3---------------|--3---1---0---1---3---------------|


                                   (B)
G|----------------------------------|----------------------------------|
D|----------------------------------|----------------------------------|
A|----------------------------------|--------------------------3-------|
E|--5---3---0---3---5---3---0---5---|--5---3---0---3---5---3-----------|


                                   (C)
G|----------------------------------|----------------------------------|
D|----------------------------------|----------------------------------|
A|--5---5--5---3--------------------|------3---5---3-------------------|
E|-----------------5----------------|--5---------------5---3---5-------|


                                   (D)
G|----------------------------------|----------------------------------|
D|----------------------------------|----------------------------------|
A|-------------2--------------------|------4---2-----------------------|
E|--4---4--4-------4----------------|--4----------4---0---2---4--------|


                                   (E)
G|----------------------------------|----------------------------------|
D|----------------------------------|----------------------------------|
A|----------------------------------|----------------------------------|
E|--0---0--0---5---3---0------------|--0---0---0---0---0---0---0-------|


                                   (F)
G|----------------------------------|----------------------------------|
D|----------------------------------|----------------------------------|
A|--1---1--1---3---1----------------|----------------------------------|
E|---------------------3---1--------|--1---3---1---3---1---3---5-------|


                                   (G)
G|----------------------------------|----------------------------------|
D|----------------------------------|----------------------------------|
A|--4---4--4---2--------------------|------4---2-----------------------|
E|-----------------4---2---4--------|--4-----------4---0---2---0-------|


                                   (H)
G|----------------------------------|----------------------------------|
D|----------------------------------|----------------------------------|
A|--7---7--7---5-------5------------|--7---5-------5-------9---7-------|
E|-----------------7-------7--------|----------7-------7---------------|


                                   (I)
G|----------------------------------|----------------------------------|
D|----------------------------------|----------------------------------|
A|-------------4--------------------|------8---6---4-------------------|
E|--6---6--6-------6---4---6--------|--6---------------6---5---4-------|


                                   (J)
G|----------------------------------|----------------------------------|
D|----------------------------------|----------------------------------|
A|----------------------3---1-------|----------------------3---1-------|
E|--3---1---0---1---3---------------|--3---1---0---1---3-----------12\-|


                                   (K)
G|----------------------------------|----------------------------------|
D|----------------------------------|----------------------------------|
A|----------------------------------|--------------------------3-------|
E|--5---3---0---3---5---3---0---5---|--5---3---0---3---5---3-----------|


                                   (L)
G|----------------------------------|----------------------------------|
D|----------------------------------|----------------------------------|
A|--5---5--5---3--------------------|------3---5---7---5--3------------|
E|-----------------5---3---5--------|--5-----------------------5-------|


                                   (M)
G|----------------------------------|----------------------------------|
D|----------------------------------|----------------------------------|
A|-------------2--------------------|------4---2-----------------------|
E|--4---4--4-------4---2---4--------|--4----------4---0---2---4--------|
			

                                   (N)
G|----------------------------------|----------------------------------|
D|----------------------------------|----------------------------------|
A|----------------------------------|----------------------------------|
E|--0---0--0---5---3---0------------|--0---0---0---0---0---0---0-------|


                                   (O)
G|----------------------------------|----------------------------------|
D|----------------------------------|----------------------------------|
A|--1---1--1---3---1----------------|----------------------------------|
E|---------------------3---1--------|--1---3---1---3---1---3---5-------|


                                   (P)
G|----------------------------------|----------------------------------|
D|----------------------------------|----------------------------------|
A|--4---4--4---2--------------------|------2---4---2-------2---4-------|
E|-----------------4---2---4--------|--4---------------4---------------|


                                   (Q)
G|----------------------------------|----------------------------------|
D|----------------------------------|----------------------------------|
A|--7---7--7---5-------5------------|--7---5-------5-------5---7-------|
E|-----------------7-------7--------|----------7-------7---------------|


                                   (R)
G|----------------------------------|----------------------------------|
D|----------------------------------|----------------------------------|
A|-------------4--------------------|------4---6---4-------------------|
E|--6---6--6-------6---4---6--------|--6---------------6---4---6-------|


                                   (S)
G|----------------------------------|----------------------------------|
D|----------------------------------|----------------------------------|
A|------------------------------6---|----------------------------------|
E|--7--7--7--7---7--7--7--7--7------|--4---4--4--4--2------------------|


                                   (T)
G|----------------------------------|----------------------------------|
D|----------------------------------|----------------------------------|
A|----------------------------6-----|----------------------------------|
E|--7--7--7--7---7--7--7------------|--4---4--4--4--4---4--4-----------|


                                   (U)
G|----------------------------------|----------------------------------|
D|----------------------------------|----------------2-----------------|
A|----------------------------------|-----------4----------------------|
E|-----2----2---2-----2---0--0--0---|--4----4--------------------------|


                                   (V)
G|----------------------------------|----------------------------------|
D|----------------------------------|----------------------------------|
A|----------------------------------|----------------------------------|
E|-----2----2---2-----2-------------|--4--4--4--4----4--4--4--4--------|


                                   (W)
G|----------------------------------|----------------------------------|
D|----------------------------------|----------------------------------|
A|------------------------------6---|----------------------------------|
E|--7--7--7--7---7--7--7--7--7------|--4---4--4--4--2------------------|


                                   (X)
G|----------------------------------|----------------------------------|
D|----------------------------------|----------------------------------|
A|----------------------------6-----|----------------------------------|
E|--7--7--7--7---7--7--7------------|--4---4--4--4--4---4--4-----------|


                                   (Y)
G|----------------------------------|----------------------------------|
D|----------------------------------|----------------2-----------------|
A|----------------------------------|-----------4----------------------|
E|-----2----2---2--2--2---0--0--0---|--4----4--------------------------|


                                   (Z)
G|----------------------------------|----------------------------------|
D|----------------------------------|----------------2-----------------|
A|----------------------------------|-----------4----------------------|
E|-----2----2---2--2--2---0--0--0---|--4----4--------------------------|


                                   (AA)
G|----------------------------------|----------------------------------|
D|----------------------------------|----------------2-----------------|
A|----------------------------------|-----------4----------------------|
E|-----2----2---2--2--2---0--0--0---|--4----4--------------------------|


                                   (AB)
G|----------------------------------|----------------------------------|
D|----------------------------------|----------------------------------|
A|----------------------------------|----------------------------------|
E|-----2----2---2--2--2-------------|--4--4--4--4----4--4--4--4--------|


                                   (AC)
G|----------------------------------|----------------------------------|
D|----------------------------------|----------------------------------|
A|------4---2---1-------------------|------4---2---1-------------------|
E|--2---------------0---------------|--2---------------0--0------------|


                                   (AD)
G|----------------------------------|----------------------------------|
D|----------------------------------|----------------------------------|
A|------4---2---1-------------------|------4---2---1-------------------|
E|--2---------------0--0--0---------|--2---------------0--0--0--0------|


                                   (AE)
G|----------------------------------|----------------------------------|
D|----------------------------------|----------------------------------|
A|------4---2---1-------------------|-----4---2---1--------------------|
E|--2---------------0--0--0--0--0---|-2---------------0--0--0--0--0--0-|


                                   (AF)
G|----------------------------------|----------------------------------|
D|----------------------------------|----------------------------------|
A|------4---2---1-------------------|------4---2---1-------------------|
E|--2---------------0--0--0--0--0---|--2---------------0--0--0--0------|


                                   (AG)
G|----------------------------------|----------------------------------|
D|----------------------------------|----------------------------------|
A|------4---2---1-------------------|------4---2---1-------------------|
E|--2---------------0--0--0---------|--2---------------0--0------------|


                                   (AH)
G|----------------------------------|----------------------------------|
D|----------------------------------|----------------------------------|
A|------4---2---1-------------------|----------------------------------|
E|--2---------------0---------------|-----------------------------14\--|


                                   (AI)
G|----------------------------------|--9---11---9---11---9-------------|
D|----------------------------------|----------------------------------|
A|------4---2---1-------------------|----------------------------------|
E|--2---------------0---------------|----------------------------------|


                                   (AJ)
G|----------------------------------|----------------------------------|
D|----------------------------------|--9---11---9---11---9-------------|
A|------4---2---1-------------------|----------------------------------|
E|--2---------------0---------------|----------------------------------|


                                   (AK)
G|----------------------------------|--9---11---9---11---9-------------|
D|----------------------------------|----------------------------------|
A|------4---2---1-------------------|----------------------------------|
E|--2---------------0---------------|----------------------------------|
			

                                   (AL)
G|----------------------------------|----------------------------------|
D|----------------------------------|--9---11---9---11---9-------------|
A|------4---2---1-------------------|----------------------------------|
E|--2---------------0---------------|----------------------------------|


                                   (AM)
G|----------------------------------|----------------------------------|
D|---------------2--2--2--1---------|--4--4--4-----4-----2-2-2-1-------|
A|-----4--2--1---------------4--2---|-----------4-----4-----------4--2-|
E|--2-------------------------------|----------------------------------|


                                   (AN)
G|----------------------------------|----------------------------------|
D|--4--4--4-----4--------2--1-------|--4--4--4-----4----2-1-2-1--------|
A|-----------4-----4-----------4--2-|-----------4-----4---------4-2-4-2-|
E|----------------------------------|----------------------------------|


                                   (AO)
G|----------------------------------|----------------------------------|
D|--4--4--4-----4-----2-2-2-1-------|--4--4--4-----4-----2-2-2-1-------|
A|-----------4-----4-----------4--2-|-----------4-----4-----------4--2-|
E|----------------------------------|----------------------------------|


                                   (AP)
G|----------------------------------|----------------------------------|
D|--4--4--4-----4-----6--7--9--7--6-|--4--4--4-----4-----6--7--9--7--6-|
A|-----------4-----4----------------|-----------4-----4----------------|
E|----------------------------------|----------------------------------|


                                   (AQ)
G|----------------------------------|----------------------------------|
D|--4--4--4-----4-----2-2-2-1-------|----------------------------------|
A|-----------4-----4----------4-4-2-|----------------------------------|
E|----------------------------------|-2--2--2--2---0--0--0--5--0--4--0-|


                                   (AR)
G|----------------------------------|----------------------------------|
D|----------------------------------|----------------------------------|
A|----------------------------------|----------------------------------|
E|-2--2--2--2---0--0--0--5--0--4--0-|-2-2-2-2-2-2-2-2--0-0-0-5-0-4-0---|


                                   (AS)
G|----------------------------------|----------------------------------|
D|----------------------------------|----------------------------------|
A|----------------------------------|----------------------------------|
E|-2-2-2-2-2-2-2-2--0-0-0-5-0-4-0---|-2-2-2-2-2-2-2-2--0-0-0-5-0-4-0---|

 Repeat AS Until The Song Fades Out

BACK TO MENU