You Hold The Key To My Love In Your Hands


 YOU HOLD THE KEY TO MY LOVE IN YOUR HANDS

 ARTIST: THE STRANGLERS
 ALBUM: HITS AND HEROES (CD:2)
 BASSIST: JEAN JACQUES BURNEL
 TAB BY [email protected]

 
                                   (A)
G|----------------------------------|----------------------------------|
D|----------------------------------|----------------------------------|
A|----------------------------------|----------------------------------|
E|----------------------------------|-------------------3--5--0--3--4--|


                                   (B)
G|----------------------------------|----------------------------------|
D|----------------------------------|----------------------------------|
A|----------------------------------|----------------------------------|
E|--5------5------5--3--5--0--3--4--|--5------5------5--3--5--0--3--4--|


                                   (C)
G|----------------------------------|----------------------------------|
D|----------------------------------|----------------------------------|
A|----------------------------------|----------------------------------|
E|--5------5------5--3--5--0--3--4--|--5------5------5--3--5--0--3--4--|


                                   (D)
G|----------------------------------|----------------------------------|
D|----------------------------------|----------------------------------|
A|----------------------------------|----------------------------------|
E|--5------5------5--3--5--0--3--4--|--5------5------5--3--5--0--3--4--|


                                   (E)
G|----------------------------------|----------------------------------|
D|----------------------------------|----------------------------------|
A|----------------------------------|----7----5------------------------|
E|--5------5------5--3--5--0--3--4--|--------------7----5----3----0----|


                                   (F)
G|----------------------------------|----------------------------------|
D|----------------------------------|----------------------------------|
A|----------------------------------|----------------------------------|
E|--5------5------5--3--5--0--3--4--|--5------5------5--3--5--0--3--4--|


                                   (G)
G|----------------------------------|----------------------------------|
D|----------------------------------|----------------------------------|
A|----7----5------------------------|----------------------------------|
E|--------------7----5----3----0----|--5------5------5--3--5--0--3--4--|


                                   (H)
G|----------------------------------|----------------------------------|
D|----------------------------------|---------5--6--7------------------|
A|----------------------------------|-5--6--7--------------------------|
E|--5------5------5--3--5--0--3--4--|-----------------5--6--7--3-5-3-5-|


                                   (I)
G|----------------------------------|----------------------------------|
D|----------------------------------|---------5--6--7------------------|
A|----------------------------------|-5--6--7--------------------------|
E|--5------5------5--3--5--0--3--4--|-----------------5--6--7--3-5-3-5-|


                                   (J)
G|----------------------------------|----------------------------------|
D|----------------------------------|----------------------------------|
A|----------------------------------|----------------------------------|
E|-3-3-3-3-3-3-7-7--5-5-5-5-5-5-5-5-|-0-0-0-0-0-0-0-0--5-5-3-3-3-3-3-3-|


                                   (K)
G|----------------------------------|----------------------------------|
D|----------------------------------|----------------------------------|
A|-5-5-5-5-5-5-9-9--7-7-7-7-7-7-7-7-|-4-4-4-4-4-4-7-7--5-5-5-5-5-5-5-5-|
E|----------------------------------|----------------------------------|


                                   (L)
G|----------------------------------|----------------------------------|
D|----------------------------------|----------------------------------|
A|----------------------------------|----------------------------------|
E|--5------5------5--3--5--0--3--4--|--5------5------5--3--5--0--3--4--|


                                   (M)
G|----------------------------------|----------------------------------|
D|----------------------------------|----------------------------------|
A|----------------------------------|----------------------------------|
E|--5------5------5--3--5--0--3--4--|--5------5------5--3--5--0--3--4--|
			

                                   (N)
G|----------------------------------|----------------------------------|
D|----------------------------------|----------------------------------|
A|----------------------------------|----------------------------------|
E|--5------5------5--3--5--0--3--4--|--5------5------5--3--5--0--3--4--|


                                   (O)
G|----------------------------------|----------------------------------|
D|----------------------------------|----------------------------------|
A|----------------------------------|----------------------------------|
E|--5------5------5--3--5--0--3--4--|--5------5------5--3--5--0--3--4--|


                                   (P)
G|----------------------------------|----------------------------------|
D|----------------------------------|----------------------------------|
A|----------------------------------|----7----5------------------------|
E|--5------5------5--3--5--0--3--4--|--------------7----5----3----0----|


                                   (Q)
G|----------------------------------|----------------------------------|
D|----------------------------------|----------------------------------|
A|----------------------------------|----------------------------------|
E|--5------5------5--3--5--0--3--4--|--5------5------5--3--5--0--3--4--|


                                   (R)
G|----------------------------------|----------------------------------|
D|----------------------------------|----------------------------------|
A|----7----5------------------------|----------------------------------|
E|--------------7----5----3----0----|--5------5------5--3--5--0--3--4--|


                                   (S)
G|----------------------------------|----------------------------------|
D|----------------------------------|---------5--6--7------------------|
A|----------------------------------|-5--6--7--------------------------|
E|--5------5------5--3--5--0--3--4--|-----------------5--6--7--3-5-3-5-|


                                   (T)
G|----------------------------------|----------------------------------|
D|----------------------------------|---------5--6--7------------------|
A|----------------------------------|-5--6--7--------------------------|
E|--5------5------5--3--5--0--3--4--|-----------------5--6--7--3-5-3-5-|


                                   (U)
G|----------------------------------|----------------------------------|
D|----------------------------------|----------------------------------|
A|----------------------------------|----------------------------------|
E|-3-3-3-3-3-3-7-7--5-5-5-5-5-5-5-5-|-0-0-0-0-0-0-0-0--5-5-3-3-3-3-3-3-|


                                   (V)
G|----------------------------------|----------------------------------|
D|----------------------------------|----------------------------------|
A|-5-5-5-5-5-5-9-9--7-7-7-7-7-7-7-7-|-4-4-4-4-4-4-7-7--5-5-5-5-5-5-5-5-|
E|----------------------------------|----------------------------------|


                                   (W)
                  G|----------------------------------|
                  D|----------------------------------|
                  A|----------------------------------|
                  E|--5------5------5--3--5--0--3--4--|


                                   (X)
G|----------------------------------|----------------------------------|
D|----------------------------------|----------------------------------|
A|----------------------------------|----------------------------------|
E|-3-3-3-3-3-3-7-7--5-5-5-5-5-5-5-5-|-0-0-0-0-0-0-0-0--5-5-3-3-3-3-3-3-|


                                   (Y)
G|----------------------------------|----------------------------------|
D|----------------------------------|----------------------------------|
A|-5-5-5-5-5-5-9-9--7-7-7-7-7-7-7-7-|-4-4-4-4-4-4-7-7--5-5-5-5-5-5-5-5-|
E|----------------------------------|----------------------------------|


                                   (Z)
                  G|----------------------------------|
                  D|----------------------------------|
                  A|----------------------------------|
                  E|--5------5------5--3--5--0--3--4--|

                                   (AA)
G|----------------------------------|----------------------------------|
D|----------------------------------|----------------------------------|
A|----------------------------------|----------------------------------|
E|-3-3-3-3-3-3-7-7--5-5-5-5-5-5-5-5-|-0-0-0-0-0-0-0-0--5-5-3-3-3-3-3-3-|


                                   (AB)
G|----------------------------------|----------------------------------|
D|----------------------------------|----------------------------------|
A|-5-5-5-5-5-5-9-9--7-7-7-7-7-7-7-7-|-4-4-4-4-4-4-7-7--5-5-5-5-5-5-5-5-|
E|----------------------------------|----------------------------------|


                                   (AC)
                    G|----------------------------------|
                    D|----------------------------------|
                    A|----------------------------------|
                    E|--5------5------5--3--5--3--5-----|


    



BACK TO MENU