The Meninblack


 THE MENINBLACK
 
 ARTIST: THE STRANGLERS
 ALBUM: RARITIES
 BASSIST: JEAN JACQUES BURNEL
 TAB BY [email protected]

 
                                   (A)
G|----------------------------------|----------------------------------|
D|--------------------4---2---------|----------------------------------|
A|-4--4--4--4--4--------------4-----|-2--2--2--2--2----4--4--4--4--4---|
E|----------------------------------|----------------------------------|
			

                                   (B)
G|----------------------------------|----------------------------------|
D|------------------4--4--4--4------|----------------------------------|
A|-4--4--4--4--4-----------------4--|-2--2--2--2--2----4--4--4--4--4---|
E|----------------------------------|----------------------------------|


                                   (C)
G|----------------------------------|----------------------------------|
D|------------------4--4--4--4------|----------------------------------|
A|-4--4--4--4--4-----------------4--|-2--2--2--2--2----4--4--4--4--4---|
E|----------------------------------|----------------------------------|


                                   (D)
G|----4--3-----4--3-----------------|----4--3-----4-3--4-3--4-3--4-6---|
D|-4--------4--------4---2--4-------|-4--------4-----------------------|
A|-----------------------------4----|----------------------------------|
E|----------------------------------|----------------------------------|


                                   (E)
G|----------------------------------|----------------------------------|
D|------------------4--4--4--4------|----------------------------------|
A|-4--4--4--4--4-----------------4--|-2--2--2--2--2----4--4--4--4--4---|
E|----------------------------------|----------------------------------|


                                   (F)
G|----------------------------------|----------------------------------|
D|----------------------------------|----------------------------------|
A|-2--2--2--2--2----4--4--4--4--4---|----1--2--4--2--1-----------------|
E|----------------------------------|-4----------------4--2--4-4-4-4-4-|


                                   (G)
G|----------------------------------|----------------------------------|
D|----------------------------------|----------------------------------|
A|-----------0--2--0----------------|----------------------------------|
E|-----2--4-----------4--2--0-------|-2--2--2--2--2--2--2--2-----------|


                                   (H)
G|----------------------------------|----------------------------------|
D|----------------------------------|----------------------------------|
A|-----------------4--4--4--4-------|-----------------4--4--4--4-------|
E|-4--4--4--4--4----------------4---|-4--4--4--4--4----------------4---|


                                   (I)
G|----------------------------------|----------------------------------|
D|----------------------------------|----------------------------------|
A|-----------------4--4--4--4-------|-----------------4--4--4--4-------|
E|-4--4--4--4--4----------------4---|-4--4--4--4--4----------------4---|


                                   (J)
G|----------------------------------|----------------------------------|
D|----------------------------------|----------------------------------|
A|-----------------4--4--4--4-------|---------------4-3--4-3--4-3--4-3-|
E|-4--4--4--4--4----------------4---|-4--4--4--4--4--------------------|


                                   (K)
G|----------------------------------|----------------------------------|
D|------------------4--4--4--4------|----------------------------------|
A|-4--4--4--4--4-----------------4--|-2--2--2--2--2----4--4--4--4--4---|
E|----------------------------------|----------------------------------|


                                   (L)
G|----------------------------------|----------------------------------|
D|------------------4--4--4--4------|----------------------------------|
A|-4--4--4--4--4-----------------4--|-2--2--2--2--2----4--4--4--4--4---|
E|----------------------------------|----------------------------------|


                                   (M)
G|----4--3-----4--3-----------------|----4--3-----4-3--4-3--4-3--4-6---|
D|-4--------4--------4---2--4-------|-4--------4-----------------------|
A|-----------------------------4----|----------------------------------|
E|----------------------------------|----------------------------------|
			

                                   (N)
G|----------------------------------|----------------------------------|
D|------------------4--4--4--4------|----------------------------------|
A|-4--4--4--4--4-----------------4--|-2--2--2--2--2----4--4--4--4--4---|
E|----------------------------------|----------------------------------|


                                   (O)
G|----------------------------------|----------------------------------|
D|----------------------------------|----------------------------------|
A|-2--2--2--2--2----4--4--4--4--4---|----1--2--4--2--1-----------------|
E|----------------------------------|-4----------------4--2--4-4-4-4-4-|


                                   (P)
G|----------------------------------|----------------------------------|
D|----------------------------------|----------------------------------|
A|-----------0--2--0----------------|----------------------------------|
E|-----2--4-----------4--2--0-------|-2--2--2--2--2--2--2--2-----------|


                                   (Q)
G|----------------------------------|----------------------------------|
D|----------------------------------|----------------------------------|
A|-----------------4--4--4--4-------|-----------------4--4--4--4-------|
E|-4--4--4--4--4----------------4---|-4--4--4--4--4----------------4---|


                                   (R)
G|----------------------------------|----------------------------------|
D|----------------------------------|----------------------------------|
A|-----------------4--4--4--4-------|-----------------4--4--4--4-------|
E|-4--4--4--4--4----------------4---|-4--4--4--4--4----------------4---|


                                   (S)
G|----------------------------------|----------------------------------|
D|----------------------------------|----------------------------------|
A|-----------------4--4--4--4-------|-----------------4--4--4--4-------|
E|-4--4--4--4--4----------------4---|-4--4--4--4--4----------------4---|


                                   (T)
G|----------------------------------|----------------------------------|
D|----------------------------------|----------------------------------|
A|-----------------4--4--4--4-------|-----------------4--4--4--4-------|
E|-4--4--4--4--4----------------4---|-4--4--4--4--4----------------4---|


                                   (U)
G|----------------------------------|----------------------------------|
D|----------------------------------|----------------------------------|
A|-----------------4--4--4--4-------|---------------4-3--4-3--4-3--4-3-|
E|-4--4--4--4--4----------------4---|-4--4--4--4--4--------------------|


                                   (V)
G|----------------------------------|----------------------------------|
D|------------------4--4--4--4------|----------------------------------|
A|-4--4--4--4--4-----------------4--|-2--2--2--2--2----4--4--4--4--4---|
E|----------------------------------|----------------------------------|


                                   (W)
G|----------------------------------|----------------------------------|
D|----------------4-----------------|----------------4-----------------|
A|-2--2--2--2--2------4--4--4--4--4-|-2--2--2--2--2------4--4--4--4--4-|
E|----------------------------------|----------------------------------|


                                   (X)
G|----------------------------------|----------------------------------|
D|----------------4-----------------|----------------4-----------------|
A|-2--2--2--2--2------4--4--4--4--4-|-2--2--2--2--2------4--4--4--4--4-|
E|----------------------------------|----------------------------------|


                                   (Y)
G|----------------------------------|----------------------------------|
D|----------------4-----------------|----------------4-----------------|
A|-2--2--2--2--2------4--4--4--4--4-|-2--2--2--2--2------4--4--4--4--4-|
E|----------------------------------|----------------------------------|


                                   (Z)
G|----------------------------------|----------------------------------|
D|----------------4-----------------|----------------4-----------------|
A|-2--2--2--2--2------4--4--4--4--4-|-2--2--2--2--2------4--4--4--4--4-|
E|----------------------------------|----------------------------------|


                                   (AA)
G|----------------------------------|----------------------------------|
D|--------------------4---2---------|----------------------------------|
A|-4--4--4--4--4--------------4-----|-2--2--2--2--2----4--4--4--4--4---|
E|----------------------------------|----------------------------------|


                                   (AB)
G|----------------------------------|----------------------------------|
D|--------------------4---2---------|----------------------------------|
A|-4--4--4--4--4--------------4-----|-2--2--2--2--2----4--4--4--4--4---|
E|----------------------------------|----------------------------------|


                                   (AC)
G|----------------------------------|----------------------------------|
D|--------------------4---2---------|----------------------------------|
A|-4--4--4--4--4--------------4-----|-2--2--2--2--2----4--4--4--4--4---|
E|----------------------------------|----------------------------------|


                                   (AD)
G|----------------------------------|----------------------------------|
D|--------------------4---2---------|----------------4-----------------|
A|-4--4--4--4--4--------------4-----|-2--2--2--2--2------4--4--4--4--4-|
E|----------------------------------|----------------------------------|


                                   (AE)
G|----------------------------------|----------------------------------|
D|----------------4-----------------|----------------4-----------------|
A|-2--2--2--2--2------4--4--4--4--4-|-2--2--2--2--2------4--4--4--4--4-|
E|----------------------------------|----------------------------------|

 REPEAT AE UNTIL THE SONG FADES OUT



BACK TO MENU