Nuclear Device

 NUCLEAR DEVICE
 ARTIST: THE STRANGLERS
 ALBUM: THE RAVEN
 BASSIST: JEAN JACQUES BURNEL
  TAB BY [email protected]

 KEYBOARDS AND VOCALS INTO

 VERSE 1                           (A)
G|----------------------------------|----------------------------------|
D|----------------------------------|----------------------------------|
A|----------------------------------|-2-3-3-2-2-0-0--------------------|
E|--3-3-0-3-3---0-5-5-0-5-5---------|-------------3-3--4-4-4-4--4-4-4-4|
			

                                   (B)
G|----------------------------------|----------------------------------|
D|----------------------------------|----------------------------------|
A|----------------------------------|-2-3-3-2-2-0-0--------------------|
E|--3-3-0-3-3---0-5-5-0-5-5---------|-------------3-3--4-4-4-4--4-4-4-4|

                                   (C)
G|----------------------------------|----------------------------------|
D|----------------------------------|----------------------------------|
A|----------------------------------|-2-3-3-2-2-0-0--------------------|
E|--3-3-0-3-3---0-5-5-0-5-5---------|-------------3-3--4-4-4-4--4-0-3-1-0|

 CHORUS                            (D)
G|----------------------------------|----------------------------------|
D|----------------------------------|----------------------------------|
A|-----5-5-5-5--3-3-3---------------|-----5-5-5-5--3-3-3---------------|
E|--5----------------0--0--3--1--0--|--5----------------0--0--3--1--0--|

                                   (E)
G|----------------------------------|----------------------------------|
D|----------------------------------|----------------------------------|
A|-----5-5-5-5--3-3-3---------------|----------------1-1--1-1--3-3-----|
E|--5-----------------0---0-0-0-----|--1-1--1-1--3-3-------------------|

                                   (F)
G|----------------------------------|----------------------------------|
D|----------------------------------|----------------------------------|
A|-----------------1-1--1-1--3-3----|----------------------------------|
E|--1-1--1-1--3-3-------------------|--1-1-1-0-1-1-1-0-1-1-1-0-1-1-1-0-|


                                   (G)
G|----------------------------------|
D|----------------------------------|
A|----------------------------------|
E|--1-1-1-0-1-1-1-0-1-1-1-0-1-1-1---|

                                   
 VERSE 2                           (H)
G|----------------------------------|----------------------------------|
D|----------------------------------|----------------------------------|
A|----------------------------------|-2-3-3-2-2-0-0--------------------|
E|--3-3-0-3-3---0-5-5-0-5-5---------|--------------3-3--4-4-4-4--4-4-4-4|

                                    
                                   (I)
G|----------------------------------|----------------------------------|
D|----------------------------------|----------------------------------|
A|----------------------------------|-2-3-3-2-2-0-0--------------------|
E|--3-3-0-3-3---0-5-5-0-5-5---------|-------------3-3--4-4-4-4--4-4-4-4|

           
                                   (J)
G|----------------------------------|----------------------------------|
D|----------------------------------|----------------------------------|
A|----------------------------------|-2-3-3-2-2-0-0----7-7-5-5-3-3-2-2-0|
E|--3-3-0-3-3---0-5-5-0-5-5---------|--------------3-3-----------------|

             
 CHORUS                            (K)
G|----------------------------------|----------------------------------|
D|----------------------------------|----------------------------------|
A|-----5-5-5-5--3-3-3---------------|-----5-5-5-5--3-3-3---------------|
E|--5----------------0--0--3--1--0--|--5----------------0--0--3--1--0--|


                                   (L)
G|----------------------------------|----------------------------------|
D|----------------------------------|----------------------------------|
A|-----5-5-5-5--3-3-3---------------|------------------1-1--1-1--3-3---|
E|--5-----------------0---0-0-0-----|--1-1--1-1--3-3-------------------|


                                   (M)
G|----------------------------------|
D|----------------------------------|
A|------------------1-1--1-1--3-3---|
E|--1-1--1-1--3-3-------------------|


 KEYBOARD SOLO                     (N)
G|----------------------------------|----------------------------------|
D|------7-7--5-5--3-3---5-5-3-2-0---|------7-7--5-5--3-3---5-5-3-2-0---|
A|--5-5--------------3-3----------3-|--5-5--------------3-3----------3-|
E|----------------------------------|----------------------------------|

     
                                   (0)
G|----------------------------------|----------------------------------|
D|----------------------------------|----------------------------------|
A|----5-7-5---5-7-5---3-5-3---3-5-3-|-5-5-5-5--5-5-5-5-----------------|
E|--5-------5-------3-------3-------|------------------5-5-3-3-1-1-0-0-|


                                   (P)
G|----------------------------------|----------------------------------|
D|------7-7--5-5--3-3---5-5-3-2-0---|------7-7--5-5--3-3---5-5-3-2-0---|
A|--5-5--------------3-3----------3-|--5-5--------------3-3----------3-|
E|----------------------------------|----------------------------------|


                                   (Q)
G|----------------------------------|----------------------------------|
D|----------------------------------|----------------------------------|
A|----5-7-5---5-7-5---3-5-3---3-5-3-|-5-5-5-5--5-5-5-5-----------------|
E|--5-------5-------3-------3-------|------------------5-5-3-3-1-1-0-0-|


                                   (R)
G|----------------------------------|----------------------------------|
D|----------------------------------|-3-2-0---3-2-0--------------------|
A|-3-2-0---3-2-0-----0------0-------|-------3-------3---0-------0------|
E|-------3-------3----3-1-0---3-1-0-|---------------------3-1-0---3-1-0|


                                   (S)
G|----------------------------------|----------------------------------|
D|----------------------------------|----------------------------------|
A|-3-2-0---3-2-0----0-------0-------|-0-------0----------5--3----------|
E|-------3-------3----3-1-0---3-1-0-|---3-1-0---3-1-0---------5--3--1--|


                                   (T)
G|----------------------------------|----------------------------------|
D|----------------------------------|----------------------------------|
A|-----------------------------3/S--|-5-5-5-5-5-5-5-5------------------|
E|-0-0-0-0-0-0-1-1-1-1-1-1-1--------|------------------5-5-3-3-1-1-0-0-|


                                   (U)
G|----------------------------------|----------------------------------|
D|----------------------------------|----------------------------------|
A|------------------1-1--1-1--3-3---|------------------1-1--1-1--3-3---|
E|--1-1--1-1--3-3-------------------|--1-1--1-1--3-3-------------------|


                                   (V)
G|----------------------------------|----------------------------------|
D|----------------------------------|----------------------------------|
A|----------------------------------|----------------------------------|
E|--1-1-1-0-1-1-1-0-1-1-1-0-1-1-1-0-|--1-1-1-0-1-1-1-0-1-1-1-0-1-1-1-0-|


 REPEAT V TILL                     (W)
G|----------------------------------|----------------------------------|
D|----------------------------------|----------------------------------|
A|-----------3-1--------------3-1---|-----------3-1--------------3-1---|
E|-1-1-1-1-1-----3--1-1-1-1-1-----3-|-1-1-1-1-1-----3--1-1-1-1-1-----3-|

 REPEAT TILL END                                  



BACK TO MENU