Rok It To The Moon


 ROK IT TO THE MOON
 
 ARTIST: THE STRANGLERS 
 ALBUM: OFF THE BEATEN TRACK
 BASSIST: JEAN JACQUES BURNEL
 TAB BY [email protected]

 *=HOLD NOTE
 S=SLIDE
 R=REST

                                   (A)
G|----------------------------------|----------------------------------|
D|----------------------------------|----------------------------------|
A|---------8--8-------------10--10--|----------------------------------|
E|--8--8-----------10--10-----------|--12--12--12--12--12--12--11--10--|
			

                                   (B)
G|----------------------------------|----------------------------------|
D|----------------------------------|------------13-12-13-12-13-12-10--|
A|------8--8---------10--10---------|----------------------------------|
E|-8--8-------10--10----------12-12-|-12-12----------------------------|


                                   (C)
G|----------------------------------|----------------------------------|
D|----------------------------------|------------------10-13-13-12-10--|
A|------8--8----------10--10--------|-----------10--12-----------------|
E|-8--8--------10--10---------12-12-|-12-12--8-------------------------|

                                                            
                                   (D)                    
G|----------------------------------|----------------------------------|
D|----------------------------------|------------------10-13-13-12-10--|
A|------8--8----------10--10--------|-----------10--12-----------------|
E|-8--8--------10--10---------12-12-|-12-12--8-------------------------|


                                   (E)
G|----------------------------------|----------------------------------|
D|----------------------------------|------------------10-13-13-12-10--|
A|------8--8----------10--10--------|-----------10--12-----------------|
E|-8--8--------10--10---------12-12-|-12-12--8-------------------------|


                                   (F)
G|----------------------------------|----------------------------------|
D|----------------------------------|------------------10-13-13-12-10--|
A|------8--8----------10--10--------|-----------10--12-----------------|
E|-8--8--------10--10---------12-12-|-12-12--8-------------------------|


 CHORUS                            (G)
G|----------------------------------|----------------------------------|
D|----------------------------------|----------------------------------|
A|----------------------------------|----------------------------------|
E|-3--3----1--1------11--11--11--11-|-3--3----1--1------11--11--11--11-|


                                   (H)
G|----------------------------------|----------------------------------|
D|----------------------------------|----------------------------------|
A|----------------------------------|----------------------------------|
E|-3--3----1--1------11--11--11--11-|-3--3----1--1------12-R-----------|


                                   (I)
G|----------------------------------|
D|----------------------------------|
A|----------------------------------|
E|---10--8--10--8--10--8--10--8-----|


                                   (J)
G|----------------------------------|----------------------------------|
D|----------------------------------|------------------10-13-13-12-10--|
A|------8--8----------10--10--------|-----------10--12-----------------|
E|-8--8--------10--10---------12-12-|-12-12--8-------------------------|


                                   (K)
G|----------------------------------|----------------------------------|
D|----------------------------------|------------------10-13-13-12-10--|
A|------8--8----------10--10--------|-----------10--12-----------------|
E|-8--8--------10--10---------12-12-|-12-12--8-------------------------|


                                   (L)
G|----------------------------------|----------------------------------|
D|----------------------------------|------------------10-13-13-12-10--|
A|------8--8----------10--10--------|-----------10--12-----------------|
E|-8--8--------10--10---------12-12-|-12-12--8-------------------------|


                                   (M)
G|----------------------------------|----------------------------------|
D|----------------------------------|------------------10-13-13-12-10--|
A|------8--8----------10--10--------|-----------10--12-----------------|
E|-8--8--------10--10---------12-12-|-12-12--8-------------------------|


                                   (N)
G|----------------------------------|----------------------------------|
D|----------------------------------|------------------10-13-13-12-10--|
A|------8--8----------10--10--------|-----------10--12-----------------|
E|-8--8--------10--10---------12-12-|-12-12--8-------------------------|


 CHORUS                            (O)
G|----------------------------------|----------------------------------|
D|----------------------------------|----------------------------------|
A|----------------------------------|----------------------------------|
E|-3--3----1--1------11--11--11--11-|-3--3----1--1------11--11--11--11-|


                                   (P)
G|----------------------------------|----------------------------------|
D|----------------------------------|----------------------------------|
A|----------------------------------|----------------------------------|
E|-3--3----1--1------11--11--11--11-|-3--3----1--1------12-R-----10-R--|


                                   (Q)
G|----------------------------------|----------------------------------|
D|----------------------------------|----------------------------------|
A|----10--8----------------6--8-----|----10--8----------------6--8-----|
E|-----------10--8---6--8-----------|-----------10--8---6--8-----------|


                                   (R)
G|----------------------------------|----------------------------------|
D|----------------------------------|----------------------------------|
A|----10--8----------------6--8-----|----10--8----------------6--8-----|
E|-----------10--8---6--8-----------|-----------10--8---6--8-----------|


                                   (S)
G|----------------------------------|----------------------------------|
D|----------------------------------|----------------------------------|
A|----10--8----------------6--8-----|----10--8----------------6--8-----|
E|-----------10--8---6--8-----------|-----------10--8---6--8-----------|


                                   (T)
G|----------------------------------|----------------------------------|
D|----------------------------------|----------------------------------|
A|----10--8----------------6--8-----|----10--8----------------6--8-----|
E|-----------10--8---6--8-----------|-----------10--8---6--8-----------|


                                   (U)
G|----------------------------------|----------------------------------|
D|----------------------------------|------------13-12-13-12-13-12-10--|
A|------8--8----------10--10--------|----------------------------------|
E|-8--8--------10--10------------12-|----------------------------------|


                                   (V)
G|----------------------------------|----------------------------------|
D|----------------------------------|------------13-12-13-12-13-S\-----|
A|------8--8----------10--10--------|----------------------------------|
E|-8--8--------10--10------------12-|----------------------------------|


                                   (W)
G|----------------------------------|----------------------------------|
D|----------------------------------|------------------10-13-13-12-10--|
A|------8--8----------10--10--------|-----------10--12-----------------|
E|-8--8--------10--10---------12-12-|-12-12--8-------------------------|


                                   (X)
G|----------------------------------|----------------------------------|
D|----------------------------------|------------------10-13-13-12-10--|
A|------8--8----------10--10--------|-----------10--12-----------------|
E|-8--8--------10--10---------12-12-|-12-12--8-------------------------|


                                   (Y)
G|----------------------------------|----------------------------------|
D|----------------------------------|------------------10-13-13-12-10--|
A|------8--8----------10--10--------|-----------10--12-----------------|
E|-8--8--------10--10---------12-12-|-12-12--8-------------------------|


                                   (Z)
G|----------------------------------|----------------------------------|
D|----------------------------------|------------------10-13-13-12-10--|
A|------8--8----------10--10--------|-----------10--12-----------------|
E|-8--8--------10--10---------12-12-|-12-12--8-------------------------|


                                   (AA)
G|----------------------------------|----------------------------------|
D|----------------------------------|------------------10-13-13-12-10--|
A|------8--8----------10--10--------|-----------10--12-----------------|
E|-8--8--------10--10---------12-12-|-12-12--8-------------------------|


                                   (AB)
G|----------------------------------|----------------------------------|
D|----------------------------------|----------------------------------|
A|----------------------------------|----------------------------------|
E|-3--3----1--1------11--11--11--11-|-3--3----1--1------11--11--11--11-|


                                   (AC)
G|----------------------------------|----------------------------------|
D|----------------------------------|----------------------------------|
A|----------------------------------|----------------------------------|
E|-3--3----1--1------11--11--11--11-|-3--3----1--1------12*------------|

BACK TO MENU