Shah Shah A Go Go


 SONG: SHAH SHAH A GO GO
 ARTISIT: THE STRANGLERS 
 ALBUM: THE RAVEN
 BASSIST: JEAN JACQUES BURNEL
 TAB BY [email protected]

 S= SLIDE

 KEYBOARD INTRO

G|------7-------7-------7-------7---|------7-------7-------7-------7---|
D|----------------------------------|----------------------------------|
A|--5-------5-------5-------5-------|--5-------5-------5-------5-------|
E|----------------------------------|----------------------------------|


G|----10------10------10-------10---|------8-------8-------8-------8---|
D|----------------------------------|----------------------------------|
A|--8-------8-------8-------8-------|--6-------6-------6-------6-------|
E|----------------------------------|----------------------------------|


G|------7-------7-------7-------7---|------7-------7-------7-------7---|
D|----------------------------------|----------------------------------|
A|--5-------5-------5-------5-------|--5-------5-------5-------5-------|
E|----------------------------------|----------------------------------|


G|----10------10------10-------10---|------8-------8-------8-------8---|
D|----------------------------------|----------------------------------|
A|--8-------8-------8-------8-------|--6-------6-------6-------6-------|
E|----------------------------------|----------------------------------|


G|------7-------7-------7-------7---|------5-------5-------5-------5---|
D|----------------------------------|----------------------------------|
A|--5-------5-------5-------5-------|--3-------3-------3-------3-------|
E|----------------------------------|----------------------------------|


                                   (A)
G|----------------------------------|----------------------------------|
D|------8-------8-------8-------8---|------8-------8-------8-------8---|
A|----------------------------------|----------------------------------|
E|--6-------6-------6-------6-------|--6-------6-------6-------6-------|
		

                                   (B)
G|----------------------------------|----------------------------------|
D|------6-------6-------6-----------|------3-------3-------3-----------|
A|----------------------------------|----------------------------------|
E|--4-------4-------4-------4--4----|--1-------1-------1-------1--1----|

REPEAT A AND B (ANOTHER 3 TIMES)

                                   (C)
G|----------------------------------|----------------------------------|
D|------8-------8-------8-------8---|------8-------8-------8-------8---|
A|----------------------------------|----------------------------------|
E|--6-------6-------6-------6-------|--6-------6-------6-------6-------|


                                   (D)
G|------10------10------10-----10---|------13------13------13------13--|
D|----------------------------------|----------------------------------|
A|--8-------8-------8-------8-------|--11------11------11------11------|
E|----------------------------------|----------------------------------|


                                   (E)
G|----------------------------------|----------------------------------|
D|------8-------8-------8-------8---|------8-------8-------8-------8---|
A|----------------------------------|----------------------------------|
E|--6-------6-------6-------6-------|--6-------6-------6-------6-------|


                                   (F)
G|-----10-------8-------7-------5---|----------------------------------|
D|----------------------------------|------8-------6-------5-------3---|
A|--8-------6-------5-------3-------|----------------------------------|
E|----------------------------------|--6-------4-------3-------1-------|


                                   (G)
G|----------------------------------|----------------------------------|
D|----------------------------------|----------------------------------|
A|----------------------------------|----------------------------------|
E|----3--0-1-2-3--0-1-2-3--0-1-2-3--|-0-1-2-3--0-1-2-3--0-1-2-3--0-1-2-3|


                                   (H)
G|----------------------------------|----------------------------------|
D|----3--3--0-----------------------|----------------------------------|
A|--------------3-----1--1--1--1----|----------------------------------|
E|----------------------------------|---0--1--2--3--0--1--2--3--0--1--2-|


                                   (I)
G|----------------------------------|----------------------------------|
D|----------------------------------|----------------------------------|
A|-------1---1---1---1---1----------|----------------------------------|
E|----------------------------------|---0--1--2--3--0--1--2--3--0--1--2-|


                                   (J)
G|----------------------------------|----------------------------------|
D|----------------------------------|----------------------------------|
A|-------1---1---1---1---1----------|----------------------------------|
E|----------------------------------|---0--1--2--3--0--1--2--3--0--1--2-|


                                   (K)
G|----------------------------------|----------------------------------|
D|----------------------------------|----------------------------------|
A|-------1---1---1---1---1----------|----------------------------------|
E|----------------------------------|---0--1--2--3--0--1--2--3--0--1--2-|


                                   (L) CHORUS
G|----------------------------------|----------------------------------|
D|----------------------------------|----------------------------------|
A|-------1---1---1---1---1----------|---0-1-2-3---------0-1-2-3--------|
E|--------------------------0--1--2-|-3---------0-1-2-3---------0-1-2-3-|


                                   (M)
G|----------------------------------|
D|----------------------------------|
A|-0-1-2-3---------0-1-2-3----------|
E|---------0-1-2-3---------0-1-2-3--|


REPEAT H, I, J, K, L, M (ANOTHER 2 TIMES)

                                   (N)
G|----------------------------------|------8-------8-------8-----------|
D|------3-------3-------3-------3---|----------------------------------|
A|----------------------------------|--6-------6-------6-------6--6----|
E|--1-------1-------1-------1-------|----------------------------------|


                                   (O)
G|------6-------6-------6-----------|------4-------4-------4-----------|
D|----------------------------------|----------------------------------|
A|--4-------4-------4-------4--4----|--2-------2-------2-------2--2----|
E|----------------------------------|----------------------------------|


                                   (P)
G|------3-------3-------3-----------|----------------------------------|
D|----------------------------------|------3-------3-------3-------3---|
A|--1-------1-------1-------1--1----|----------------------------------|
E|----------------------------------|--1-------1-------1-------1-------|


                                   (Q)
G|----------------------------------|----------------------------------|
D|------3-------3-------3-------3---|------3-------3-------3-------3---|
A|----------------------------------|----------------------------------|
E|--1-------1-------1-------1-------|--1-------1-------1-------1-------|


                                   (R) 
G|----------------------------------|----------------------------------|
D|------3-------3-------3-------3---|------3-------3-------3-------3---|
A|----------------------------------|----------------------------------|
E|--1-------1-------1-------1-------|--1-------1-------1-------1-------|


                                   (S)
G|----------------------------------|------3-------3-------3-----------|
D|------3-------3-------3-------3---|----------------------------------|
A|----------------------------------|--1-------1-------1-------1--1----|
E|--1-------1-------1-------1-------|----------------------------------|


                                   (T)
G|------4-------4-------4-----------|------6-------6-------6-----------|
D|----------------------------------|----------------------------------|
A|--2-------2-------2-------2--2----|--4-------4-------4-------4--4----|
E|----------------------------------|----------------------------------|


                                   (U)
G|------8-------8-------8-----------|------9-------9-------9-----------|
D|----------------------------------|----------------------------------|
A|--6-------6-------6-------6--6----|--7-------7-------7-------7--7----|
E|----------------------------------|----------------------------------|


                                   (V)
G|------10------10------10----------|------11------11------11----------|
D|----------------------------------|----------------------------------|
A|--8-------8-------8-------8--8----|--9-------9-------9-------9--9----|
E|----------------------------------|----------------------------------|


                                   (W)
G|------12------12------12----------|------13------13------13----------|
D|----------------------------------|----------------------------------|
A|--10------10------10------10--10--|--11------11------11------11--11--|
E|----------------------------------|----------------------------------|


                                   (X)
G|------14------14------14----------|------15------15------15----------|
D|----------------------------------|----------------------------------|
A|--12------12------12------12--12--|--13------13------13------13--13--|
E|----------------------------------|----------------------------------|


                                   (Y)
G|------16------16------16----------|------17------17------17----------|
D|----------------------------------|----------------------------------|
A|--14------14------14------14--14--|--15------15------15------15--15--|
E|----------------------------------|----------------------------------|


                                   (Z)
G|------18------18------18----------|------19------19------19----------|
D|----------------------------------|----------------------------------|
A|--16------16------16------16--16--|--17------17------17------17--17--|
E|----------------------------------|----------------------------------|


                                   (AA)
G|------20------20------20------20--|------19------19------19------19--|
D|----------------------------------|----------------------------------|
A|--18------18------18------18------|--17------17------17------17------|
E|----------------------------------|----------------------------------|


                                   (AB)
G|------17------17------17------17--|------14------14------14------14--|
D|----------------------------------|----------------------------------|
A|--15------15------15------15------|--12------12------12------12------|
E|----------------------------------|----------------------------------|


                                   (AC)
G|------11------11------11------11--|------9-------9-------9-------9---|
D|----------------------------------|----------------------------------|
A|--9-------9-------9-------9-------|--7-------7-------7-------7-------|
E|----------------------------------|----------------------------------|


                                   (AD)
G|------7-------7-------7-------7---|------5-------5-------5-------5---|
D|----------------------------------|----------------------------------|
A|--5-------5-------5-------5-------|--3-------3-------3-------3-------|
E|----------------------------------|----------------------------------|


                                   (AE)
G|------5-------5-------5-------5---|----------------------------------|
D|----------------------------------|------7-------7-------7-------7---|
A|--3-------3-------3-------3-------|----------------------------------|
E|----------------------------------|--5-------5-------5-------5-------|


                                   (AF)
G|----------------------------------|
D|------7-------7-------7-----------|
A|----------------------------------|
E|--5-------5-------5-------5S------|


                                   (AG)
G|----------------------------------|----------------------------------|
D|----------------------------------|----------------------------------|
A|---------0--4--0--3--0--1--0------|---------0--4--0--3--0--1--0------|
E|-----3----------------------------|-----3----------------------------|

 REPEAT AG UNTIL THE SONG FADES OUT



                                  



BACK TO MENU